Song name
# A B C D E F G H I J K L M N O P Q R S T U V W X Y Z

Pescado Rabioso - La Cereza Del Zar tab

Introducion
e------------------------3-3-3-3-|
b--0-0-1h0---------------3-0-1-0-|
g----------0-2h0---------0-0-0-0-|
d----------------0-2h0---0-0-0-0-|
a------------------------2-0-0-0-|
E----------------------3-3-3-3-3-|

Repite tres veces y luego:

e--------0-------3-3-3-3--------0-------3-3-3-3-|
b--0-1-3---3-1-0-3-0-1-0--0-1-3---3-1-0-3-0-1-0-|
g----------------0-0-0-0----------------0-0-0-0-|
d----------------0-0-0-0----------------0-0-0-0-|
a----0-2-3-2-0---2-0-0-0----0-2-3-2-0---2-0-0-0-|
E--3-----------3-3-3-3-3--3-----------3-3-3-3-3-|

e--2-3-5-5-3-2-0-2-3-3-2-0-------0-----3-----|
b--------------------------0-1-3---3-1-3-3-1-|
g--------------------------------------0-2-0-|
d--0-2-4-4-2-0---0-2-2-0---------------0-0-2-|
a--------------3---------3---0-2-3-2-0-2---3-|
E--------------------------3-----------3-2-3-|

e--------7-7-8h7---3-|
b------8---------8-3-|
g----7-------------0-|
d--0---------------0-|
a------------------2-|
E------------------3-|


e-----------------|
b0--1-3-3--1---0--|
a---0-2-2--0------|
E3-------------3--|
 La cereza del zar (las notas caen justo en las silabas)

e-----------------|
b0--1-3-3--1---0--|
a---0-2-2--0------|
E3-------------3--| G Bm
 impulsada por el
           Bm/Bb           A(riff)G(riff)   F#
al caer el sol el zar miro las platas de su luna
Bm           C#m
loco por las calles va
A             E*    F#m-G-E  (El G es solo la nota como puente)
buscando a la cereza
Dinv          Abinv
sombras de un hada
Bm           C#m
lo salude un rayo
A            Eb9   Cinv Eb9 Cinv
el viento da pavor y    nie-bla
    Dm          Am
las lajas de la calle
       G  Dinv C  G  G-G7-G
y esta vo-la---du-ra
G  Dinv C G   G-G7-G
de unos ninios
G  Dinv C  G Dinv C/G
al ver  la cere---za
   G
caer.


A(riff):  G(riff)
e-------[--------|
b---7---[-----3--|
g--6----[----4---|
d-------[--------|
a-------[--------|
E-5-----[---3----|

Acordes
          E A D G B E
Bm        x 2 4 4 3 2
Bm/Bb     x 1 4 4 3 x
F#        2 4 4 3 2 2
C#m       x 4 6 6 5 4
A         5 7 7 6 5 5
E*        x 7 6 4 5 x
E         0 2 2 1 0 0
F#m       2 4 4 2 2 2
Dinv      2 x 0 2 3 x
Abinv     4 x 0 4 5 x
Eb9       x 6 5 0 6 x
Cinv      x 3 2 4 5 x
Dm        x 5 7 7 6 5
Am        5 7 7 5 5 5
G         3 2 0 0 3 3
C         x 3 2 0 1 x
G7        3 0 0 0 1 3
C/G       3 3 2 0 1 x
Tap to rate this tab
# A B C D E F G H I J K L M N O P Q R S T U V W X Y Z