Song name
# A B C D E F G H I J K L M N O P Q R S T U V W X Y Z

Pestilence - Lost Souls tab

Solo
Guitar 1
|-----------------------------------------------------------------|
|-----------------------------------------------------------------|
|----------4-8-7--------6-7-11-10----------4-8-7--------6-7-11-10-|
|--6-4-6-7--------9-7-9------------6-4-6-7--------9-7-9-----------|
|-----------------------------------------------------------------|
|-----------------------------------------------------------------|

|-------------------------------------------------------------|
|-------------------------------------------------------------|
|--------------7tr--6tr---------------------7tr--6tr----------|
|-6tr-----8tr------------9--7--6tr-----8tr------------9--7----|
|-------------------------------------------------------------|
|-------------------------------------------------------------|

|--9----8--------12---11-------|
|--12b--11b------15b--14b------|
|------------------------------|
|------------------------------|
|------------------------------|
|------------------------------|

Guitar 1
|--20b--19b---18-16------------------------------20b--20~--|
|-------------------19-18-16-------------------------------|
|----------------------------18-17-15----------------------|
|-------------------------------------18-17-16-------------|
|----------------------------------------------------------|
|----------------------------------------------------------|

Guitar 3 (not sure probably)
|--17b--16b---15-13----------------------------------------|
|-------------------16-15-13-------------------------------|
|----------------------------15-14-12----------------------|
|-------------------------------------15-14-13-------------|
|----------------------------------------------------------|
|----------------------------------------------------------|


|--16--17h19-18~--20b--20~--23b-23~---|
|-------------------------------------|
|-------------------------------------|
|-------------------------------------|
|-------------------------------------|
|-------------------------------------|
Tap to rate this tab
# A B C D E F G H I J K L M N O P Q R S T U V W X Y Z