Song name
# A B C D E F G H I J K L M N O P Q R S T U V W X Y Z

Pete Francis - Goin Home tab

Pete Francis
Good to Finally Know
Goin' Home
Original by Owen Sakovics
       at http://www.geocities.com/tabs_in_one_fell_swoop/
Rework by FoosBoy

Tuning:
E A D G B E
s = slide

 D        A                       G
-2--2-----0-----------------------3--|
-3--3-----2--3--3s5--5s10--2--0---3--|
-2--2-----2----------------2------0--|    x4
-0--0-----2-----------------------0--|
----------0--0--0----0-----0------2--|
------------------------------3---3--|
                      finger pick around on the G


Listen to his pattern for this part

I   '  ll         see you at home
 Em    F       C            G
-0-----1-------0------------3--|
-0-----1-------1------------3--|
-0-----2-------0------------0--|   x1
-2-----3-------2------------0--|
-2-----3-------3------------2--|
-0-----1--------------------3--|
Tap to rate this tab
 
# A B C D E F G H I J K L M N O P Q R S T U V W X Y Z