Song name
# A B C D E F G H I J K L M N O P Q R S T U V W X Y Z

Pete Murray - So Beautiful tab

Capo on 3rd Fret

Intro and Verse

  Em7  A7sus4 Cadd9 Aadd9

----X-----X-----X-----X----------|
----3-----3-----3----------------|
----------------------2----------|
----2-----2-----2-----2----------|
----2-----------3----------------|
----------X-----X-----X----------|

Chorus

God my fingers burn....

[Em7 - - -][Am - - -][D - - -][C - Cadd4 -]

----X-------------------2------------------------|
----3-------1-----------3-------1---\---3--------|
------------2-----------2-----------\------------|
----2-------2-------------------2---\---4--------|
----2---------------------------3---\---5--------|
-------------------------------------------------|

just listen to the guitar in the background and u'll be able to heard the strum and when 
guitar comes in with the lyrics. This tab is correct i saw him play live and i was 
carefully!!
Tap to rate this tab
 
# A B C D E F G H I J K L M N O P Q R S T U V W X Y Z