Song name
# A B C D E F G H I J K L M N O P Q R S T U V W X Y Z

Pete Murray - Bitter tab

Bitter - Pete Murray
Capo 4 - all notes relative to capo
Standard Tuning

Couldn't find the tab anywhere on the net so i thought i'd have a crack at it myself, 
sure it is correct. Great song there is a good video of him playing it live in Ampsterdam 
youtube. Just listen to that for the timing

[Riff 1]

e|-------0----------0--------------------------------|
B|-------1----------0----------1---1-------1-----1---|
G|-------2----------0---------0h2--0-------0-----0---|
D|-------2----------2----------3---3-------2-----0---|
A|--0-0-----0--2--2----0--0-----------0--3----2------|
E|---------------------------------------------------|

[Riff 2]

e|-------0---------0----------0----------0----|
B|-------1---------1----------1----------3----|
G|-------2---------2----------0----------0----|
D|-------2---------2----------2----------4----|
A|--0-0--0----0-0--0--0--3-3--3--3--5-5--5----|
E|--------------------------------------------|

Intro	[Riff 1] x4

Verse
[Riff 1]					[Riff 1]
i gave you everything i thought that you would need
you just cut my heart and left me to bleed
i had to fly away to get out of this mess
i don't know why i cried myself to death

Chorus 1
[Riff 1]				[Riff 1]
	i really dont know why, i wasted all my tears
	i really dont know why, i wasted all those years

[Riff 2] x2

Verse
[Riff 1]					[Riff 1]
you never gave me half of what you said
played me for a fool and left me there dead
now it is all plain for me to see
the only thing you didn't care for was your honesty

Chorus 1
[Riff 1]					[Riff 1]
	i really dont know why, i wasted all my tears
	i really dont know why, i wasted all those years

Bridge
[Riff 2]		[Riff 2]
now i' just ashamed to say i'm one of your kind
for you it's just a game how could i have been so blind

Chorus 2
[Riff 1]					[Riff 1]
i will hold my breath if you come my way again
i will hold my breath if you come my way again
if you come my way, if you come my way

[Riff 1] x1

Bridge
[Riff 2]
now i'm just ashamed to say i'm one of your kind
for you it's just a game how could i have been so blind

Chorus 2
[Riff 1]					[Riff 1]
i will hold my breath if you come my way again
i will hold my breath if you come my way again
if you come my way, if you come my way
if you come my way, if you come my way

Any comments clos_is@hotmail.com
Tap to rate this tab
 
# A B C D E F G H I J K L M N O P Q R S T U V W X Y Z