Song name
# A B C D E F G H I J K L M N O P Q R S T U V W X Y Z

Pete Yorn - Ez tab

Intro

E|----2---------------2----------|----------------------------------------|
B|----3-------3-------3-------3--|----------------------------------------|
G|----2-------2-------2-------2--|----------------------------------------|
D|-0----------0----0----------0--|--X2------------------------------------|
A|---------4---------------4-----|----------------------------------------|
E|-------------------------------|----------------------------------------|


Verse

E|----2---------------3-------3--|----------------------------------------|
B|----3-------3-------3-------3--|----------------------------------------|
G|----2-------2-------0-------0--|----------------------------------------|
D|-0----------0-------0-------0--|----------------------------------------|
A|---------4-------2-------------|----------------------------------------|
E|-------------------------3-----|----------------------------------------|


Pre-Chorus:

Bm A
Bm A
Bm C
A A


Chorus:

G D
Bm A
G D
Bm A


Verse

Pre-Chorus

Chorus

G G G G

Breakdown:

D A Bm G
Bm A Bm A
Bm C A A A A


Chorus till end of song.


-Adam
Tap to rate this tab
# A B C D E F G H I J K L M N O P Q R S T U V W X Y Z