Song name
# A B C D E F G H I J K L M N O P Q R S T U V W X Y Z

Peter Frampton - Penny For Your Thoughts tab

-------------------------------------------------------------------------------
	            Penny for Your Thoughts - Peter Frampton
-------------------------------------------------------------------------------
Tabbed by:bigredchuck
Email:shaggy87mg@yahoo.com

Tuning:open g DGDGBD
this is my first posting but i am fairly accurate with the tab, this is a great
song for anyone who likes to fingerpick. I don't have the song to listen to so
the exact order may not be correct, so just plug each part where its suppose to be.

d|-12p10p9p0-----0---------0----------12p10p9p0-----0-------0----------------|
B|-------------0-----0h1-----1-0------------------0----0h1----1-0------------|
G|-----------------------0---------------------------------0-----------------|
D|---------------------------------------------------------------------------|
G|-------------------0h2-------------------------------0h2-------------------|
D|---------------------------------------------------------------------------|

d|-12p10p9p0---0--------0--------0---7+----12+----12p10p9p0---0--------0-----|
B|-----------0----0h1-----1-2----0---7+----12+--------------0----0h1-----1-2-|
G|--------------------0----------0---7+----12+-----------------------0-------|
D|-------------------------------0---7+----12+-------------------------------|
G|----------------0h2------------0---7+----12+-------------------0h2---------|
D|-------------------------------0---7+----12+-------------------------------|

d|-12p10p9p0---0------0------12p10p9p0---0-------0---------------------------|
B|-----------0---0h1----1-0------------0---0h1-----1-0--0-1-2-3-5-7-8-10-----|
G|-------------------0-------------------------0-----------------------------|
D|---------------------------------------------------------------------------|
G|---------------0h2-----------------------0h2----------0-2-3-4-5-7-9-11-----|
D|---------------------------------------------------------------------------|

d|-12p10p9p0---0------0------12p10p9p0---0------0------12p10p9p0---0------0--|
B|-----------0---0h1----1-0------------0---0h1----1-0------------0---0h1---1-0
G|-------------------0-------------------------0-------------------------0---|
D|---------------------------------------------------------------------------|
G|---------------0h2-----------------------0h2-----------------------0h2-----|
D|---------------------------------------------------------------------------|

d|--------------0------------0-----------------------------------------------|
B|-0-1-2-3---5---5--5-65--3---3--43--0-0-0h1/3-3--3--0-0-0h1/3-3--3----------|
G|------------0---0--0-----0---0----------------0----0-0-0--0---0------------|
D|---------------------------------------------------------------------------|
G|-0-2-3-4---5-5---5------3-3---3----0-0-0h2/4-4-4---0-0-0h2/4-4-4-----------|
D|---------------------------------------------------------------------------|

d|-----0-----------------0-------------------0-----------------0--------0----|
B|-5----5---5---65--3-----3----3---43---7-----7----7---87--5----5--3-----3---|
G|---0----0---0-------0-----0----0--------0-----0----0-------0---0---0-----0-|
D|---------------------------------------------------------------------------|
G|-5--5----5--------3---3-----3---------7---7----7---------5---5---3---3-----|
D|---------------------------------------------------------------------------|

d|-12p10p9p0--0----0-----12p10p9p0-0----0----12p10p9p0-0----0----------------|
B|-----------0-0h1--1-0-----------0-0h1--1-0----------0-0h1--1-0-0-1-2-3-5-7-10
G|----------------0--------------------0-------------------0-----------------|
D|---------------------------------------------------------------------------|
G|-------------0h2------------------0h2-----------------0h2------0-2-3-4-5-7-11
D|---------------------------------------------------------------------------|

d|-12p10p9p0-0----0----12p10p9p0-0----0----12p10p9p0-0----0-----0--7+--12+---|
B|----------0-0h1--1-0----------0-0h1--1-0----------0-0h1--1-0--0--7+--12+---|
G|---------------0-------------------0-------------------0------0--7+--12+---|
D|--------------------------------------------------------------0--7+--12+---|
G|------------0h2-----------------0h2-----------------0h2-------0--7+--12+---|
D|--------------------------------------------------------------0--7+--12+---|

| /  slide up
| h  hammer-on
| p  pull-off
| +  harmonic 
===============================================================================
Tap to rate this tab
 
# A B C D E F G H I J K L M N O P Q R S T U V W X Y Z