Song name
# A B C D E F G H I J K L M N O P Q R S T U V W X Y Z

Peter Frampton - Ill Give You Money tab

From the album:  "Frampton Comes Alive"

Key:

b = bend
r = release bend
p = pick off
h = hammer on
/ = slide up
\ = slide down
brp = bend, release the bend, then pick off

e|------------------------------------10-9--12-9-10-9----------------------|
B|----------------------------------------10---------10--7-8-10-12b-r-10---|
G|----6-7-9--7-6----------------6-7-9-------------------9------------------|
D|-5/7----------7---------7-9-10-------------------------------------------|
A|---------------7--7-9-10-------------------------------------------------|
E|-------------------------------------------------------------------------|

e|-------12121212-10101010\9-99\7-77\5-12p9---10p7-----------------15-17---|
B|-12-10-----------------------------------10-----8-7-8/10-------15--------|
G|----------------------------------------------------------14/15----------|
D|-------------------------------------------------------------------------|
A|-------------------------------------------------------------------------|
E|-------------------------------------------------------------------------|

e|-17b-17b-17brp15---15-17--19-17--15-17-----------------------------------|
B|----------------17--------------------15-17--15h17p15-14------------13---|
G|--------------------------------------------------------14\12--12-14-----|
D|-------------------------------------------------------------14----------|
A|-------------------------------------------------------------------------|
E|-------------------------------------------------------------------------|

e|---12--15p12--15-12-12---------------------------------------------------|
B|-15--------15-----15--15-13------------------------------------------13--|
G|---------------------------14-12-14--12h14p12-------------------12-14----|
D|---------------------------------------------14-12--12-14--12-14---------|
A|--------------------------------------------------15---------------------|
E|-------------------------------------------------------------------------|

e|---14-15-14-12--15p12--15-12-12------------------------------------------|
B|-15-----------------15-----15--15-13-------------------------------------|
G|------------------------------------14-12-14-----------------------------|
D|-------------------------------------------------------------------------|
A|-------------------------------------------------------------------------|
E|-------------------------------------------------------------------------|

Well thats the solo.  Very fun to play and hope you have fun with it.
Tap to rate this tab
# A B C D E F G H I J K L M N O P Q R S T U V W X Y Z