Song name
# A B C D E F G H I J K L M N O P Q R S T U V W X Y Z

Peter Green - The Supernatural tab

As requested :)

e|-13b~~~~~~\\\------------------------------8-----------10b-8-------------------10-13b-|
B|---------------8bh10-----8----8-----8-10b----10-8-10---------10-8-10-8----------------|
G|---------------------10----10---10--------------------------------------10-9-7--------|
D|--------------------------------------------------------------------------------------|
A|--------------------------------------------------------------------------------------|
E|--------------------------------------------------------------------------------------|

e|-15-13-(13)-------------------------------------------------------------------------------------|
B|--------15--------------------------------------------13-10----------------13-10----------------|
G|-------------14-12-10--12-10-10h12-10---12-10----10---------12-10-----10---------12-10----------|
D|----------------------------------------------12-------------------12------------------12-10----|
A|---------------------------------------------------------------------------------------------12-|
E|------------------------------------------------------------------------------------------------|

e|------------------------|
B|------------------------|
G|------------------------|
D|------------------------|
A|-10-8-10-8-------10h12b-|
E|-----------10~----------|

e|-17b~~~~~~~~\\\-10-8------------------------------------|
B|---------------------8-10-------------------------------|
G|--------------------------10-7--------------------------|
D|-------------------------------5/7\5-----5h7p5--------5-|
A|--------------------------------------7~--------5-3/7---|
E|---------~----------------------------------------------|

e|-17b--17-15--------8h10p8-------------10-8-10b--15b15bp13------10-8-----------------------------|
B|------------18-15---------10-8----------------------------15--------10-8-6/8---8h10bp8b---------|
G|-------------------------------7-10-----------------------------------------------------10-7-5-7|
D|------------------------------------------------------------------------------------------------|
A|------------------------------------------------------------------------------------------------|
E|------------------------------------------------------------------------------------------------|

e|--------------|
B|-6h8p6--------|
G|-------7------|
D|---------7~---|
A|--------------|
E|--------------|

e|-20b~~~~~~~~~\\\-10-8--10-8-------------------------8---------------------|
B|----------------------------10-8--8h10p8-----8/10b----10-6h8p6------------|
G|------------------------------------------10--------------------7---5-7~--|
D|------------------------------------------------------------------7-------|
A|--------------------------------------------------------------------------|
E|--------------------------------------------------------------------------|

e|-17b-15--13-15-13-15----13h15p13---15-13-10-------------10---------------------------------|
B|---------------------15---------------------10-8----8b-----10--10--------------------------|
G|-------------------------------------------------10---------------10h12p10----12-10----10~-|
D|---------------------------------------------------------------------------12-------12-----|
A|-------------------------------------------------------------------------------------------|
E|-------------------------------------------------------------------------------------------|

e|-8----10b~---13/15--13-10---------------------------------------|
B|---10----------------------10-8-6-------------------------------|
G|-----------------------------------7----------------------------|
D|----------------------------------------------------------10----|
A|------------------------------------------8------8~-10h12----12-|
E|-------------------------------------8h10---10b-----------------|

e|-10b~~~~~~~~~~10-8-------------------------8---------------17-15h17------15-13----------13-|
B|-------------------8h10----------------10----10----8h10b------------18---------15----15----|
G|------------------------10----10-12-10----------10--------------------------------14-------|
D|---------------------------12--------------------------------------------------------------|
A|-------------------------------------------------------------------------------------------|
E|-------------------------------------------------------------------------------------------|

e|-20b--17-15--13/15-13--13/15-13--15h17-----13----10--8--------------------|
B|---------------------------------------15-------(10)---10-8--6h8---8-6----|
G|-----------------------------------------------------------------7-----7b-|
D|--------------------------------------------------------------------------|
A|--------------------------------------------------------------------------|
E|--------------------------------------------------------------------------|

e|-10-8----8---10b~~13---17----13-15--17b-15-13---15b-13-----------------------------------------|
B|------10------------------15---------------------------15--------------------------------------|
G|----------------------------------------------------------14--12h14p12--10-12-10----------9-10-|
D|---------------------------------------------------------------------------------12---12-------|
A|------------------------------------------------------------------------------------12---------|
E|-----------------------------------------------------------------------------------------------|

e|------10-|
B|---10----|
G|-7-------|
D|---------|
A|---------|
E|---------|
Tap to rate this tab
# A B C D E F G H I J K L M N O P Q R S T U V W X Y Z