Song name
# A B C D E F G H I J K L M N O P Q R S T U V W X Y Z

Peterpan - Semua Tentang Kita Acoustic tab

Intro
E|-----------------------------------------------------------------------------------------------|
B|---------------------------------------------------------1-----------------------0-------------|
G|---------------------------------------------------------------0-----0-----------------0-----0-|
D|---2-----2h3---2-----0--------0--------0-----0-----2--------------0-----------2-----------0----|
A|3-----3-----------3--------2-----2h3------3-----0-----0--------------------2-------------------|
E|------------------------3-----------------------------------------------0----------------------|
  1  +  2  +  3  +  4  +  1  +  2  +  3  +  4  +  1  +  2  +  3  +  4  +  1  +  2  +  3  +  4  +  

E|-----------------------------------------------------------------------------------------------|
B|---------1--------------------1--------------------------1-----------------------1-----------3-|
G|---0-----------0-----0-----------------0-----------0-----------0-----0-----------------0-------|
D|3-----3-----------3--------2-----0h2---------0--------------------2-----------0-----------0----|
A|------------------------3-----------------3-----0-----0--------------------2-------------------|
E|------------------------------------------------------------------------3----------------------|
  1  +  2  +  3  +  4  +  1  +  2  +  3  +  4  +  1  +  2  +  3  +  4  +  1  +  2  +  3  +  4  +

E|---------1--------------|
B|---------------1--------|
G|---0--------------------|
D|------0-----------0-----|
A|------------------------|
E|------------------------|
  1  +  2  +  3  +  4  +    



The Chord Is = Am ,Em ,F ,C, Dm , G
                    
Tap to rate this tab
# A B C D E F G H I J K L M N O P Q R S T U V W X Y Z