Song name
# A B C D E F G H I J K L M N O P Q R S T U V W X Y Z

Pezz - Fairytale tab

-------------------------------------------------------------------------------
			     FAIRYTALE - PEZZ (EARLY BILLY TALENT)
-------------------------------------------------------------------------------
Tabbed by: kujo987
Email: kurtis.tora@hotmail.com

Tuning: standard

intro
e|------------------------------------------------------------------|
B|----------------------------------------5--5-5--5-----------------|
G|------------3-4-5--5-5--5-4-3--3-3--3-4-6--6-6--6-----------------|
D|--3--3-3--3-3-4-5--5-5--5-4-3--3-3--3-4-6--6-6--6-----------------|
A|--3--3-3--3-1-2-3--3-3--3-2-1--1-1--1-2-4--4-4--4-----------------|
E|--1--1-1--1-------------------------------------------------------|

e|------------------------------------------------------------------|
B|----------------------------------------6--6-6--6-----------------|
G|------------3-4-5--5-5--5-4-3--3-3--3-4-7--7-7--7-----------------|
D|--3--3-3--3-3-4-5--5-5--5-4-3--3-3--3-4-7--7-7--7-----------------|
A|--3--3-3--3-1-2-3--3-3--3-2-1--1-1--1-2-5--5-5--5-----------------|
E|--1--1-1--1-------------------------------------------------------|

e|------------------------------------------------------------------|
B|------------------------------------------------------------------|
G|---7-7-7-7-7-7-3--------------------------------------------------|
D|---7-7-7-7-7-7-3--------------------------------------------------|
A|---5-5-5-5-5-5-1--------------------------------------------------|
E|------------------------------------------------------------------|

Tap to rate this tab
 
# A B C D E F G H I J K L M N O P Q R S T U V W X Y Z