Song name
# A B C D E F G H I J K L M N O P Q R S T U V W X Y Z

Phair Liz - Divorce Song tab

Most of the tabs to this song are kinda off and/or confusing, so I have fixed up a few 
from various versions and looked at footage of Liz playing this song, although there 
very many good videos, I think I have finally got a pretty solid tab for y'all.

Listen to the song to find the timing and strumming pattern.

Verse

e|-------------3-|
B|-1---3---3---2-|
G|-0---0---0---0-|
D|-2---4---4---0-|
A|-3---5---0---2-|
E|---------5---3-|

Chorus

e|-1-------3---2---3| Listen close for the timing of the last two chords.
B|-1---5---3---2---2|
G|-2---5---4---0---0|
D|-3---5---5---0---0|
A|-3---3---5---1---2|
E|-1---3---3---2---3|

OUTRO (not too audible on eig; more apparent on bootlegs)

each measure is counted as 4 beats.  listen to the recording to
get the strumming pattern.

e|-----------|-------|-----------|-1/3---3-----|
B|-0---3---0-|-0---3-|-0---0---0-|-1/3---3---5-|
G|-0---0---3-|-0---0-|-0---3---2-|-2/4---4---5-|
D|-0---0---0-|-3---0-|-2---2---2-|-3/5---5---5-|
A|-2---2---2-|-2---2-|-3---3---3-|-3/5---5---3-|
E|-3---3---3-|-3---3-|-0---0---0-|-1/3---3---3-|

e|-----------|-------|-----------|-1/3---3-----|
B|-0---3---0-|-0---3-|-0---0---0-|-1/3---3---5-|
G|-0---0---3-|-0---0-|-0---3---2-|-2/4---4---5-|
D|-0---0---0-|-3---0-|-2---2---2-|-3/5---5---5-|
A|-2---2---2-|-2---2-|-3---3---3-|-3/5---5---3-|
E|-3---3---3-|-3---3-|-0---0---0-|-1/3---3---3-|

e|-1/3---3-----|-0/1---1---1---1-|-3-|
B|-1/3---3---5-|-0/1---1---1---1-|-3-|
G|-2/4---4---5-|-1/2---2---3---2-|-0-|
D|-3/5---5---5-|-2/3---3---1---3-|-0-|
A|-3/5---5---3-|-2/3---3---3---3-|-2-|
E|-1/3---3---3-|-0/1---1---1---1-|-3-|

Lyrics

And when I asked for a separate room
It was late at night, and we'd been driving since noon
But if I'd known how that would sound to you
I would have stayed in your bed for the rest of my life
Just to prove I was right
That it's harder to be friends than lovers
And you shouldn't try to mix the two
'Cause if you do it and you're still unhappy
Then you know that the problem is you
And it's true that I stole your lighter
And it's also true that I lost the map
But when you said that I wasn't worth talking to
I had to take your word on that
But if you'd known how that would sound to me
You would have taken it back
And boxed it up and buried it in the ground
Boxed it up and buried it in the ground
Boxed it up and buried it in the ground
Burned it up and thrown it away
You put in my hands a loaded gun
And then told me not to fire it
When you did the things you said were up to me
And then accused me of trying to fuck it up
But you've never been a waste of my time
It's never been a drag
So take a deep breath and count back from ten
And maybe you'll be alright
And the license said you had to stick around until I was dead
But if you're tired of looking at my face, I guess I already am
But you've never been a waste of my time
It's never been a drag
So take a deep breath and count back from ten
And maybe you'll be alright
Tap to rate this tab
# A B C D E F G H I J K L M N O P Q R S T U V W X Y Z