Song name
# A B C D E F G H I J K L M N O P Q R S T U V W X Y Z

Phair Liz - Divorce Song tab

#

#----------------------------------PLEASE NOTE---------------------------------#
#This file is the author's own work and represents their interpretation of the #
#song. You may only use this file for private study, scholarship, or research. #
#------------------------------------------------------------------------------#

Date: Tue, 26 Nov 1996 20:02:57 EST
From: Brian F Mojica 
Subject: TAB: DIVORCE SONG by Liz Phair

DIVORCE SONG
by Liz Phair
from Exile in Guyville
tabbed by Brian Mojica 

h = hammer on
p = pull off
/ = slide up
\ = slide down
~ = vibrato
^ = bend (half-, full-, two-steps etc. specified)
rb=release bend

Capo 1

And when I asked.....
And you put in my hand.....
And the license said.....
|---------------------3-------3-3-|
|-1-1-1-3-------------0-------0-0-|
|-0-0-0-0---0---0-----0-------0-0-|
|-2-2-2-4---0---0---0-0-----0-0-0-|
|-3-3-3-5---4---2---2-------2-----|
|-----------5---3---3-------3-----|

And boxed it up and.....
But you^?ve never been a waste.....
But it^?s never been a waste.....
|---------------2/3-3-3-2/3-3-3---|
|---------------2/3-3-3-2/3-3-3---|
|-2-2-2-5---4---0---0-0-0---0-0---|
|-3-3-3-5---5---0---0-0-0---0-0---|
|-3-3-3-3---5---1/2-2-2-1/2-2-2---|
|-1-1-1-----3---2/3-3-3-2/3-3-3---|

After 2nd "...maybe you'll be all right":

G  F  C  G
G  F  C  G
G  F  G  (end)
Tap to rate this tab
# A B C D E F G H I J K L M N O P Q R S T U V W X Y Z