Song name
# A B C D E F G H I J K L M N O P Q R S T U V W X Y Z

Phair Liz - Turning Japanese tab

Highlighted       Show chord diagrams
--------------------------------------------------------------
                 Turning Japanese - Liz Phair
--------------------------------------------------------------

Album: Juvenilia
Tabbed by: Steve Wakeley

Tuning:standard

------------------
Chords:
A     x02220
F#m   244220 
Bm    224432
D     557775
E     779997 
G     355433  
-------------------      


[Intro Lick]

e|-----5555--33--00--3---------------------------------------|
B|-----5555--33--00--3---------------------------------------|(2x)
G|-----------------------------------------------------------|
D|-----------------------------------------------------------|
A|-----------------------------------------------------------|
E|-----------------------------------------------------------|

[Intro]
    
 Guitar 1:    A           F#m           Bm      D      E   
 
 Guitar 2:      (Riff 1)      (Riff 2)  
                                       
Riff 1

e|--------9h10p9-5~------------------------------------------|
B|-----------------------------------------------------------|
G|-----------------------------------------------------------|
D|-----------------------------------------------------------|
A|-----------------------------------------------------------|
E|-----------------------------------------------------------|

Riff 2

e|--------2h3---5~-------------------------------------------|
B|-----------------------------------------------------------|
G|-----------------------------------------------------------|
D|-----------------------------------------------------------|
A|-----------------------------------------------------------|
E|-----------------------------------------------------------|

 [Verse] 

  Guitar 1:   A                           F#m
  Guitar 2:                       (Riff1)             (Riff2)         
              I got your picture...  

              A                           F#m            
                                  (Riff1)             (Riff2)
              You wrote...

              Bm             D            E   

                    I'm simply staring...
                               
               A                             F#m 
                                     (Riff1)          (Riff2)  
               Oh it's in color...

               A                             F#m
                                     (Riff1)          (Riff2)    
               Your eyes are hazel...  
        
               Bm              D           E
              
                    I often kiss you...

[1st lick]

e|------------------------------------------------------------|
B|------------------------------------------------------------|
G|------------------------------------------------------------|
D|------------------------------------------------------------|
A|-----0--4--9--7--5-5-5h7--9---0--4--9--7--5-5-5-7-----------|
E|------------------------------------------------------------|

                                                  To [Intro lick] (1x)
                                                            
                                                  To  [Verse]     (1x)                         

                                                  To  [Chorus]:
[Chourus]


 Guitar 1:    A                         E        
 Guitar 2:                                 (Riff 3)   
              Turning Japanese...
                       
              G                         D
              Turning Japanese...          (Riff 3)   
(Riff 3) 

e|------5-5-5-5--3-2-0-----------------------------------------|
B|------5-5-5-5--3-2-0-----------------------------------------|
G|-------------------------------------------------------------|
D|-------------------------------------------------------------|
A|-------------------------------------------------------------|
E|-------------------------------------------------------------|

[2nd Lick]

e|-------------------------------------------------------------|
B|-------------------------------------------------------------|
G|-------------------------------------------------------------|
D|-------------------------------------------------------------|
A|----------------------0--4--9--7--5-5-5-7--------------------|
E|----5-5-4-4-3-3-4--------------------------------------------|

                                               To [Intro Lick] (1x)
                                                            
                                               To [Verse] 
                                               To [Chorus]
                                               To [Bridge]:
                                                                     
[Bridge]

             A              E 
      No sex...      its dark...   
         
              G             D   
       Everyone around...    every-one
                      
                                               To [chorus]


| h  hammer-on
| p  pull-off
| ~  vibrato
==================================================================
Tap to rate this tab
 
# A B C D E F G H I J K L M N O P Q R S T U V W X Y Z