Guitaretab - guitar tabs
Song name
# A B C D E F G H I J K L M N O P Q R S T U V W X Y Z

Phenomenauts - Doa tab

-------------------------------------------------------------------------------
D.O.A. - D.O.A.
Hardcore 81
-------------------------------------------------------------------------------
Tabbed by: axeslash
Email: holmzito@yahoo.com

Tuning: Both Guitars standard tuning

Guitar 1:
e|---------------------------------------|
B|---------------------------------------|
G|-9-X-X-X-X-X-X-9-X-9---------5--5-5----|
D|-9-X-X-X-X-X-X-9-X-9----7----5--5-5----|
A|-7-X-X-X-X-X-X-7-X-7----5----3--3-3----|
E|------------------------5--------------|
Guitar 2:
e|---------------------------------------|
B|---------------------------------------|
G|-----------------------------5--5-5----|
D|------------------------7----5--5-5----|
A|------------------------5----3--3-3----|
E|------------------------5--------------|

Guitar 1:
e|---------------------------------------|
B|---------------------------------------|
G|-9-X-X-X-X-X-X-9-X-9---------5--5-5----|
D|-9-X-X-X-X-X-X-9-X-9----7----5--5-5----|
A|-7-X-X-X-X-X-X-7-X-7----5----3--3-3----|
E|------------------------5--------------|
Guitar 2:
e|---------------------------------------|
B|---------------------------------------|
G|-9---------------------------5--5-5----|
D|-9----------------------7----5--5-5----|
A|-7----------------------5----3--3-3----|
E|------------------------5--------------|

Guitar 1+2
e|---------------------------------------|
B|---------------------------------------|
G|-9-X-X-X-X-X-X-9-X-9---------5--5-5----|
D|-9-X-X-X-X-X-X-9-X-9----7----5--5-5----|
A|-7-X-X-X-X-X-X-7-X-7----5----3--3-3----|
E|------------------------5--------------| x6

Guitar 1:
e|--------------------------------------------------------------|
B|--------------------------------------------------------------|
G|-------------7--7-7----------------5--5-5----------------7----|
D|-5--5--5--5--7--7-7----7--7--7--7--5--5-5----5--5--5--5--7----|
A|-5--5--5--5--5--5-5----7--7--7--7--3--3-3----5--5--5--5--5----|
E|-3--3--3--3------------5--5--5--5------------3--3--3--3-------|
Guitar 2:           
e|-------------10-10-10\\\\-------------------------------------|
B|-------------10-10-10\\\\-------------------------------------|
G|--------------------------------------------------------------|
D|--------------------------------------------------------------|
A|--------------------------------------------------------------|
E|--------------------------------------------------------------|

Guitar 1+2
e|---------------------------------------|
B|---------------------------------------|
G|-9-X-X-X-X-X-X-9-X-9---------5--5-5----|
D|-9-X-X-X-X-X-X-9-X-9----7----5--5-5----|
A|-7-X-X-X-X-X-X-7-X-7----5----3--3-3----|
E|------------------------5--------------| x6

Guitar 1:
e|--------------------------------------------------------------|
B|--------------------------------------------------------------|
G|-------------7--7-7----------------5--5-5----------------7----|
D|-5--5--5--5--7--7-7----7--7--7--7--5--5-5----5--5--5--5--7----|
A|-5--5--5--5--5--5-5----7--7--7--7--3--3-3----5--5--5--5--5----|
E|-3--3--3--3------------5--5--5--5------------3--3--3--3-------|
Guitar 2:           
e|-------------10-10-10\\\\-------------------------------------|
B|-------------10-10-10\\\\-------------------------------------|
G|--------------------------------------------------------------|
D|--------------------------------------------------------------|
A|--------------------------------------------------------------|
E|--------------------------------------------------------------|

Solo:
Guitar 2
e|-------------------------------------12-12-12-12-12-12-10-12-12-12/14-14-12-10-12-|
B|-12-12-12-12-12-12-12-12-12-12-12-12----------------------------------------------|
G|----------------------------------------------------------------------------------|
D|----------------------------------------------------------------------------------|
A|----------------------------------------------------------------------------------|
E|----------------------------------------------------------------------------------|
Guitar 1
e|---------------------------------------|
B|---------------------------------------|
G|-9-X-X-X-X-X-X-9-X-9---------5--5-5----|
D|-9-X-X-X-X-X-X-9-X-9----7----5--5-5----|
A|-7-X-X-X-X-X-X-7-X-7----5----3--3-3----|
E|------------------------5--------------|
[ Tab from: http://www.guitaretab.com/p/phenomenauts/156880.html ]
Guitar 2
e|---------------------------------------12-12-12-12-12-12-12-15-12-10-12-|
B|-10-12-12--10-12-12--10-12-12-10-12-12----------------------------------|
G|------------------------------------------------------------------------|
D|------------------------------------------------------------------------|
A|------------------------------------------------------------------------|
E|------------------------------------------------------------------------|
Guitar 1
e|---------------------------------------|
B|---------------------------------------|
G|-9-X-X-X-X-X-X-9-X-9---------5--5-5----|
D|-9-X-X-X-X-X-X-9-X-9----7----5--5-5----|
A|-7-X-X-X-X-X-X-7-X-7----5----3--3-3----|
E|------------------------5--------------|

Guitar 2
e|----------------------------------------------w--------|
B|-11^--10-10h12-10-10h12-10-8--12^--12^--12^-12^-12-13^-|
G|-------------------------------------------------------|
D|-------------------------------------------------------|
A|-------------------------------------------------------|
E|-------------------------------------------------------|
Guitar 1
e|---------------------------------------|
B|---------------------------------------|
G|-9-X-X-X-X-X-X-9-X-9---------5--5-5----|
D|-9-X-X-X-X-X-X-9-X-9----7----5--5-5----|
A|-7-X-X-X-X-X-X-7-X-7----5----3--3-3----|
E|------------------------5--------------|

Guitar 2
e|--------------------------------------------------------wh------|
B|-12^-10-10-12^-10-10-12^-10-10-12^/---10-10-10--10-10-12^-------|
G|----------------------------------------------------------------|
D|----------------------------------------------------------------|
A|----------------------------------------------------------------|
E|----------------------------------------------------------------|
Guitar 1
e|-------------------------------------|
B|-------------------------------------|
G|-9-X-X-X-X-X-X-9-X-9---------5-------|
D|-9-X-X-X-X-X-X-9-X-9----7----5-------|
A|-7-X-X-X-X-X-X-7-X-7----5----3-------|
E|------------------------5------------|

Guitar 1:
e|---------------------------------------|
B|---------------------------------------|
G|-9-X-X-X-X-X-X-9-X-9---------5--5-5----|
D|-9-X-X-X-X-X-X-9-X-9----7----5--5-5----|
A|-7-X-X-X-X-X-X-7-X-7----5----3--3-3----|
E|------------------------5--------------|
Guitar 2:
e|---------------------------------------|
B|---------------------------------------|
G|-----------------------------5--5-5----|
D|------------------------7----5--5-5----|
A|------------------------5----3--3-3----|
E|------------------------5--------------|

Guitar 1:
e|---------------------------------------|
B|---------------------------------------|
G|-9-X-X-X-X-X-X-9-X-9---------5--5-5----|
D|-9-X-X-X-X-X-X-9-X-9----7----5--5-5----|
A|-7-X-X-X-X-X-X-7-X-7----5----3--3-3----|
E|------------------------5--------------|
Guitar 2:
e|---------------------------------------|
B|---------------------------------------|
G|-9---------------------------5--5-5----|
D|-9----------------------7----5--5-5----|
A|-7----------------------5----3--3-3----|
E|------------------------5--------------|

Guitar 1+2
e|---------------------------------------|
B|---------------------------------------|
G|-9-X-X-X-X-X-X-9-X-9---------5--5-5----|
D|-9-X-X-X-X-X-X-9-X-9----7----5--5-5----|
A|-7-X-X-X-X-X-X-7-X-7----5----3--3-3----|
E|------------------------5--------------| x2

Guitar 1:
e|---------------------------------------------|
B|---------------------------------------------|
G|-------------7--7-7----------------5--5-5----|
D|-5--5--5--5--7--7-7----7--7--7--7--5--5-5----|
A|-5--5--5--5--5--5-5----7--7--7--7--3--3-3----|
E|-3--3--3--3------------5--5--5--5------------| x3
Guitar 2:
e|-------------10-10-10\\\\--------------------|
B|-------------10-10-10\\\\--------------------|
G|---------------------------------------------|
D|---------------------------------------------|
A|---------------------------------------------|
E|---------------------------------------------| x3

Guitar 1:
e|--------------------|
B|--------------------|
G|-------------7------|
D|-5--5--5--5--7------|
A|-5--5--5--5--5------|
E|-3--3--3--3---------| 
Guitar 2:
e|-------------10\\\\-|
B|-------------10\\\\-|
G|--------------------|
D|--------------------|
A|--------------------|
E|--------------------|


| ^wh one and a half step bend
| ^w  whole step bend
| ^   quarter step bend
| /   slide up
| \   slide down
| h   hammer-on
| p   pull-off
| ~   vibrato
| +   harmonic
| x   Mute note
===============================================================================
Related for Doa tab
Advertisement will be closed in 10 seconds