Song name
# A B C D E F G H I J K L M N O P Q R S T U V W X Y Z

Phil Joel - Go Home tab

intro
verse 1
chorus
intro
verse 2
chorus
bridge
chorus

intro (x2)
e----------------------------------------------|
b---7-7-7-7-7-7-8-8-8-8-8-3-3-3-3-3-3-3-3-3----|
g----------------------------------------------|
d----------------------------------------------|
a----------------------------------------------|
e---5-5-5-5-5-5-5-5-5-5-5-3-3-3-3-3-3-3-3-3----|


verse 1: (x4)
e----------------------------------------------|
b---7-7-7-7-7-7-8-8-8-8-8-3-3-3-3-3-3-3-3-3----|
g----------------------------------------------|
d----------------------------------------------|
a----------------------------------------------|
e---5-5-5-5-5-5-5-5-5-5-5-3-3-3-3-3-3-3-3-3----|

chorus:
e------------------|
b------------------|
g------------------|
d--5---7---10------|
a--5---7---10------|
e--3---5---8-------|       (x4)


verse 2: (x3)
e------------------------|
b------------------------|
g--7----9---- 5----------|
d--7----9---- 5----------|
a--5(x8)-7(x8)-3(x16)----|
e------------------------|

bridge (2:37):
e-------------------------------------------------------|
b-------------------------------------------------------|
g-------------------------------------------------------|
d--------17-16-17-----17-16-17----17-16-17---14-12-5----|
a-----17-----------17-----------17----------17----------|
e-------------------------------------------------------|

end:
e----
b----
g---7
d---7
a---5
e----
Tap to rate this tab
# A B C D E F G H I J K L M N O P Q R S T U V W X Y Z