Song name
# A B C D E F G H I J K L M N O P Q R S T U V W X Y Z

Phil Ochs - Bound For Glory tab

Bound for glory (Phil Ochs)

One way of playing it.. like it or lump it... Feel free to change the bass pattern. 
J-David (29.11.2011)


Time signature: 1/2


    C                                   G
    :   .   :   .   :   .   :   .       :   .   :   .   :   .   :   .
|-------0-0-----0-0-----0-0-----0-0-|-------3-3-----3-3-----3-------3-3-|
|-------1-1-----1-1-----1-1-----1-1-|-------0-0-----0-0-----0-------0-0-|
|-------0-------0-------0-------0---|-------0-------0-------0-------0-0-|
|----------0h2-------------0h2------|-----------0-----------------------|
|---3---------------3---------------|--------------------------0h2------|
|-----------------------------------|---3---------------3---------------|


    G7                                  C
    :   .   :   .   :   .   :   .       :   .   :   .   :   .   :   .
|-------1-1-----1-1-----1-1-----1-1-|-------0-0-----0-0-----0-0---------|
|-------0-0-----0-0-----0-0-----0-0-|-------1-1-----1-1-----1-1---------|
|-------0-------0-------0-------0-0-|-------0-------0---0---------------|
|-----------0---------------3-------|----------0h2--------------0---2---|
|-----------------------------------|---3-------------------------------|
|---3---------------3---------------|-----------------------------------|


    F                                   C
    :   .   :   .   :   .   :   .       :   .   :   .   :   .   :   .
|-------1-1-----1-1-----1-1-----1-1-|-------0-0-----0-0-----0-0-----0-0-|
|-------1-1-----1-1-----1-1-----1-1-|-------1-1-----1-1-----1-1-----1-1-|
|-------2--0h2----------2--0h2------|-------0-------0-------0-------0---|
|---3---------------3---------------|---0------0h2-------------0h2------|
|-----------------------------------|-------------------3---------------|
|-----------------------------------|-----------------------------------|


    G                                   F               C
    :   .   :   .   :   .   :   .       :   .   :   .   :   .   :   .
|-------3-3-----3-3-----3-3-----3-3-|-------1-1-----1-1-----0-0-----0-0-|
|-------0-0-----0-0-----0-0-----0-0-|-------1-1-----1-1-----1-1-----1-1-|
|-------0-------0-------0-------0-0-|-------2-------2-------0-------0---|
|---0-------------------------------|--------------------------0h2------|
|-----------2--------------0h2------|---3-------0-------3---------------|
|-------------------3---------------|-----------------------------------|


Chorus

    Dm              G                   C               Am  
    :   .   :   .   :   .   :   .       :   .   :   .   :   .   :   .
|-------1-1-----1-1-----3-3-----3-3-|-------0-0-------------0-0-----0-0-|
|-------3-3-----3-3-----0-0-----0-0-|-------1-1-------------1-1-----1-1-|
|-------2-------2-------0-------0---|-------0---------------2-------2---|
|---0-------------------------------|--------------------------0h2------|
|-----------0--------------0h2------|---3-------3---2---0---------------|
|-------------------3---------------|-----------------------------------|


    Dm              G                   C 
    :   .   :   .   :   .   :   .       :   .   :   .   :   .   :   .
|-------1-1-----1-1-----3-3---------|-------0-0------0------0-0---------|
|-------3-3-----3-3-----0-0---------|-------1-1------1------1-1---------|
|-------2-------2-------0-----------|-------0--------0---0--2-----------|
|---0---------------------------0---|-----------0h2-------------2---0---|
|-----------0---------------2-------|---3-------------------------------|
|-------------------3---------------|-----------------------------------|


    C
    :   .   :   .   :   .   :   .
|-------0-0-----------------0-------|
|-------1-1---------1-------1-------|
|-------0------0h2----------0-------|
|----------0h2----------------------|
|---3-------------------3-----------|
|-----------------------------------|
Tap to rate this tab
 
# A B C D E F G H I J K L M N O P Q R S T U V W X Y Z