Song name
# A B C D E F G H I J K L M N O P Q R S T U V W X Y Z

Phil Wickham - Messiah chords

Highlighted       Show chord diagrams
-----------------------------------------------------------------------------
			     Messiah - Phil Wickham
-----------------------------------------------------------------------------
Tabbed by: Asher Hebert
Email: crasyguitarist@hotmail.com

Tuning: D tuning (tune guitar a full step down)


Intro/Verse 1
    Bm       A       F#m      Em                    D
d|--------------------------------------|       d|----------|
A|--------------------------------------|       A|----------|
F|--9--------8--------4--------2--------|       F|--1-------|
C|--9--------9--------6--------4--------| [3x]  C|--2-------|
G|--7-[16x]--9-[16x]--7-[16x]--4-[16x]--|       G|--2-[4x]--|
D|--9--------7--------4--------2--------|       D|--0-------|


Chorus 1
    G        Bm      A       G       A       D
d|----------------------------------------------------|
A|----------------------------------------------------|
F|--6--------9-------8-------6-------8-------1--------|
C|--7--------9-------9-------7-------9-------2--------|
G|--7-[16x]--7-[8x]--9-[8x]--7-[8x]--9-[8x]--2-[16x]--|
D|--5--------9-------7-------5-------7-------0--------|


Verse 2
    Bm       A       F#m      Em                    D
d|--------------------------------------|       d|----------|
A|--------------------------------------|       A|----------|
F|--9--------8--------4--------2--------|       F|--1-------|
C|--9--------9--------6--------4--------| [2x]  C|--2-------|
G|--7-[16x]--9-[16x]--7-[16x]--4-[16x]--|       G|--2-[4x]--|
D|--9--------7--------4--------2--------|       D|--0-------|


Chorus
    G        Bm      A       G       A       Bm       D
d|------------------------------------------------------------|
A|------------------------------------------------------------|
F|--6--------9-------8-------6-------8-------9--------1-------|
C|--7--------9-------9-------7-------9-------9--------2-------|  [2x]
G|--7-[16x]--7-[8x]--9-[8x]--7-[8x]--9-[8x]--7-[12x]--2-[4x]--|last time skip
D|--5--------9-------7-------5-------7-------9--------0-------|the C#m chord


Bridge
   Em       D       G       A      Em      Bm       A       F#m
d|-------------------------------------------------------------------|
A|-------------------------------------------------------------------|
F|--2-------1-------6-------8-------2-------9-------8--------4-------|
C|--4-------2-------7-------9-------4-------9-------9--------6-------|
G|--4-[8x]--2-[8x]--7-[9x]--9-[7x]--4-[8x]--7-[8x]--9-[12x]--7-[4x]--|
D|--2-------0-------5-------7-------2-------9-------7--------4-------|

[Back to Chorus]

Tag
    D        G
d|-------------------|
A|-------------------|
F|--1--------6-------|
C|--2--------7-------|  [4x]
G|--2-[13x]--7-[3x]--|
D|--0--------5-------|


End
   Bm        A       F#m      Em
d|-----------------------------0--|
A|-----------------------------0--|
F|--9--------8--------4--------2--|
C|--9--------9--------6--------4--|
G|--7-[16x]--9-[16x]--7-[16x]--4--|
D|--9--------7--------4--------2--|


************************************

| /   slide up
| \   slide down
| h   hammer-on
| p   pull-off
| ~   vibrato
| +   harmonic
| x   Mute note
| b   Bend
| pb  Pre-bend
| br  Bend release
| pbr Pre-bend release
| brb Bend release bend

************************************
Tap to rate this tab
# A B C D E F G H I J K L M N O P Q R S T U V W X Y Z