Song name
# A B C D E F G H I J K L M N O P Q R S T U V W X Y Z

Philipp Poisel - Liebe Meines Lebens tab

Tabbed by: Jami
Tuning: C-A-C-G-B-E

I added the bassline, since it's really easy to play them both together, so you 
won't need a bassist.

Intro: 2x
e|---------------------------------------------------------------------------|
B|---------------------------------------------------------------------------|
G|------0--------0---------0-------------0------------0----------0-------0---|
C|----0---0----0---0-----0----0-------0-----0------0-----0-----0---0----0--0-|
A|--3--------3----------3-----------7-----------8------------8--------8------|
C|--0------------------------------------------------------------------------|

e|---------------------------------------------------------------------------|
B|---------------------------------------------------------------------------|
G|--------0------------------------------------------------------------------|
C|-----0-----0---------------------------------------------------------------|
A|--5------------------------------------------------------------------------|
C|---------------------------------------------------------------------------|
Vers: 4x
e|---------------------------------------------------------------------------|
B|---------------------------------------------------------------------------|
G|------0--------0---------0-------------0------------0----------0-------0---|
C|----0---0----0---0-----0----0-------0-----0------0-----0-----0---0----0--0-|
A|--3--------7----------8-----------8-----------8------------5--------3------|
C|--0------------------------------------------------------------------------|

e|---------------------------------------------------------------------------|
B|---------------------------------------------------------------------------|
G|--------0------------------------------------------------------------------|
C|-----0-----0---------------------------------------------------------------|
A|--3------------------------------------------------------------------------|
C|---------------------------------------------------------------------------|
Pre-Chorus: 2x
e|---------------------------------------------------------------------------|
B|---------------------------------------------------------------------------|
G|------0--------0---------0-------------0------------0----------0-------0---|
C|----0---0----0---0-----0----0-------0-----0------0-----0-----0---0----0--0-|
A|--3--------3----------8-----------8-----------5------------5--------3------|
C|---------------------------------------------------------------------------|

e|---------------------------------------------------------------------------|
B|---------------------------------------------------------------------------|
G|--------0------------------------------------------------------------------|
C|-----0-----0---------------------------------------------------------------|
A|--3------------------------------------------------------------------------|
C|---------------------------------------------------------------------------|
Refrain
e|---------------------------------------------------------------------------|
B|---------------------------------------------------------------------------|
G|--------0----------0--------0-------0--------0-------0---------0-------0---|
C|------0---0------0---0----0---0---0---0----0---0---0---0----0----0---0---0-|
A|----3---------3---------8-------8---------8-------8-------3--------3-------|
C|----0-------------------5---------------------------------0----------------|

e|---------------------------------------------------------------------------|
B|---------------------------------------------------------------------------|
G|--------0----------0--------0-------0--------0-------0---------0---5-----0-|
C|------0---0------0---0----0---0---0---0----0---0---0---0----0----0-----0---|
A|----3---------7---------8-------8---------5-------5-------3----------0-----|
C|--------------4---------5-----------------2---------------0----------------|


e|---------------------------------------------------------------------------|
B|--------------3----------------------------------3-------------------------|
G|--------0------------0------0---5-----0------0---------0-------0---5-----0-|
C|------0---0--------0------0---0-----0------0---0-----0------0----0-----0---|
A|----3------------0------3---------0-------3--------0------3----------0-----|
C|----0-------------------2-----------------5---------------0----------------|


e|---------------------------------------------------------------------------|
B|--------------3----------------------------------3-------------------------|
G|--------0------------0------0---5-----0------0---------0-------------------|
C|------0---0--------0------0---0-----0------0---0-----0---------------------|
A|----3------------0------3---------0-------3--------0-----------------------|
C|----0-------------------2-----------------5--------------------------------|
Tap to rate this tab
# A B C D E F G H I J K L M N O P Q R S T U V W X Y Z