Philippe Catherine - Simply tab

Simply   Philippe Catherine             Album = guitar groove

http://www.philipcatherine.com/


the first 50 seconds - not complete yet - tab bij Alain

1)
e|-10-9----12-10-9----------------9---------------------------------|
B|-----------------12-----12-11-----12-11-9----9-8----9-8-6---------|  x2
G|--~---------------------------------------------------------4-5-7-|
D|------------------------------------------------------------------|
A|------------------------------------------------------------------|
E|------------------------------------------------------------------|



2)
e|---------------------------------------------------------------|
B|------------~---8-----9-----10-9--12-10--13-12-----------------|
G|-7-6--9-7--10-9---10----11-------------------------------------|
D|---------------------------------------------------------------|
A|---------------------------------------------------------------|
E|---------------------------------------------------------------|




3)
e|-10-9--10-9-7--7-9-7-6----5---4-5-7--10-9-10-9-------------------------------------------|
B|------------------------7---7-------------------12-10-9------------------14-14-14-14-12--|
G|--------------------------------------------------------11-9-----------------------------|
D|--------------------------------------------------------------12-11-12-11----------------|
A|-----------------------------------------------------------------------------------------|
E|-----------------------------------------------------------------------------------------|


4)
e|-------------------9------------------------------|
B|-11-9------------9--------------------------------|
G|------11---11-10----------------------------------|
D|--------------------------------------------------|
A|--------------------------------------------------|
E|--------------------------------------------------|
Tap to rate this tab
 
# A B C D E F G H I J K L M N O P Q R S T U V W X Y Z