Song name
# A B C D E F G H I J K L M N O P Q R S T U V W X Y Z

Phish - Train Song tab

Train song -8
Billy breathes (1996)

tuning-standard-EADGBe

Intro/verse

1---5p3-3----3-----------------------------|
2--3-----5p3--3p0-0---------------------3--|
3-0----0----0----0-2p0---(x3)----2-2----2--|
4--------------------------------2-2--0-0--|
5------------------------------0-0-0-------|
6------------------------------------------|

Bridge 1

1-----------------------------------------|
2--------------------2---2---1---1--------|
3---0---0---0---0-----2---2---2---2-------|
4--2-2-0-0-0-0-0-0--2---2---2---2---------|
5-3---2---1---0----0---0---0---0----------|
6-----------------------------------------|

Bridge 2

1---2----3----5----3---2----------|
2---3----3----5----3---3----------|
3---2----4----5----4---2(strum)---|
4-0-0--0-0--0-0--0-0---0----------|
5---------------------------------|
6---------------------------------|

outro

1--5p3------------------|
2------5p3-3p0----------|
3-0---0---0---0-2p0-----|
4-----------------------| fade out
5-----------------------|
6-----------------------|

enjoy

for questions, hatemail and ect. e-mail me at hrny_devil183@hotmail.com
Tap to rate this tab
 
# A B C D E F G H I J K L M N O P Q R S T U V W X Y Z