Song name
# A B C D E F G H I J K L M N O P Q R S T U V W X Y Z

Phish - Carini tab

-------------------------------------------------------------------------------
			     CARINI - Phish
-------------------------------------------------------------------------------
Tabbed by: JakdOnCrack
Email:

Main Riff
e|---------------------------------------------------------------------------|
B|---------------------------------------------------------------------------|
G|-x-x-5-5-5-5-x-x-4-4-4-4---------------------------------------------------|
D|-x-x-5-5-5-5-x-x-4-4-4-4---------------------------------------------------|
A|---------------------------------------------------------------------------|
E|---------------------------------------------------------------------------|

Verse/Chorus
e|---------------------------------------------------------------------------|
B|---------------------------------------------------------------------------|
G|---------------------------------------------------------------------------|
D|------2--------------------------------------------------------------------|
A|------2--------------------------------------------------------------------|
E|--0h3-0--------------------------------------------------------------------|

That's pretty much.  Then you jam in Em
Tap to rate this tab
 
# A B C D E F G H I J K L M N O P Q R S T U V W X Y Z