Song name
# A B C D E F G H I J K L M N O P Q R S T U V W X Y Z

Phish - 46 Days tab

Help us improve GuitareTab! Take a short survey!
E ----------------------------------|
B ------------------------7---------|
G ------------------9--9--7h8-------|
D ----9----9-7------9--9------9~----|
A ----9---9---7--/7-7--7------------|
E -7--7--7-----5--------------------|   X 3

Then

Taste the fear for the devil's drawing near....
E ----------------------------------------------------|
B ----------------------------3~----------------------|
G -9---------------------0-/2----0h2p0---0-2bp0-------|
D -9-strum a few times-----------------2--------2p0---|
A -7--------------------------------------------------|
E --------------------------------------------------0-|

Then back to verse 1

Solo is in B Minor
Related for 46 Days tab