Guitaretab - guitar tabs
Song name
# A B C D E F G H I J K L M N O P Q R S T U V W X Y Z

Phish - Divided Sky tab

Phish  Divided Sky
Junta
Tabbed by: Matt Reardon


This is the solo at the end of divided sky. I learned this all by ear, so it may be a 
off, but i think it's pretty accurate.


Fig. 1

E -------------13-----------13-12-10--10h12p10-----12-10h12p10-------|
B ----------10-----------10-----------------------------------13-----|
G --10--12---------10-12------------------------12-------------------|
D -------------------------------------------------------------------|
A -------------------------------------------------------------------|
E -------------------------------------------------------------------|

Fig 2

E -----------10-----------10------------------------------------------|
B --------10-----------10-----13-11-11h13p11-----13-11h13p11-10-------|
G --10-12--------10-12------------------------12----------------------|
D --------------------------------------------------------------------|
A --------------------------------------------------------------------|
E --------------------------------------------------------------------|

Fig 3

E ----10-12-13-----10-13-12-----10-12-10-17-15-13--------------------|
B -10-----------10-----------13-------------------13-----------------|
G -------------------------------------------------------------------|
D -------------------------------------------------------------------|
A -------------------------------------------------------------------|
E -------------------------------------------------------------------|

Fig 4

E -----------------10------------------------------------------------|
B -------10-----10-----13-10----10-11-----10-11-13-------------------|
G -10-12-----10--------------12-------12-----------------------------|
D -------------------------------------------------------------------|
A -------------------------------------------------------------------|
E -------------------------------------------------------------------|

Fig 5
[ Tab from: http://www.guitaretab.com/p/phish/62563.html ]
E --17-14-15-17-10-12-14-15-17-17-19-15-17-19-14-14-14-14-15-17------|
B -------------------------------------------------------------------|
G -------------------------------------------------------------------|
D -------------------------------------------------------------------|
A -------------------------------------------------------------------|
E -------------------------------------------------------------------|

E -17-14-10-19-17-15-14-10-12-10-9-10-10-15-14-12--9-9-7-9-10--------|
B -------------------------------------------------------------------|
G -------------------------------------------------------------------|
D -------------------------------------------------------------------|
A -------------------------------------------------------------------|
E -------------------------------------------------------------------|

Fig. 6

E --17-14-15-17-10-12-14-15-17-17-19-15-17-19-14-14-14-14-15-17------|
B -------------------------------------------------------------------|
G -------------------------------------------------------------------|
D -------------------------------------------------------------------|
A -------------------------------------------------------------------|
E -------------------------------------------------------------------|

E -17-14-10-19-17-15-14-10-12-10-9-10-10-15-14-12-10-10-15-14--------|
B -------------------------------------------------------------------|
G -------------------------------------------------------------------|
D -------------------------------------------------------------------|
A -------------------------------------------------------------------|
E -------------------------------------------------------------------|

Fig 7

E --10-----17-14h15-10h12-14-15-12-----------------------------------|
B ------10-----------------------------------------------------------|
G -------------------------------------------------------------------|
D -------------------------------------------------------------------|
A -------------------------------------------------------------------|
E -------------------------------------------------------------------|

Progression

Fig 1		Fig 1		Fig 5
Fig 2		Fig 2		Fig 6
Fig 1		Fig 3		Fig 7
Fig 2		Fig 4
Fig 3		Fig 1
Fig 4		Fig 2
Fig 1		Fig 1
Fig 2		Fig 2


That's all there is for now. that's pretty much through all of it until it gets crazy.
Related for Divided Sky tab