Guitaretab - guitar tabs
Song name
# A B C D E F G H I J K L M N O P Q R S T U V W X Y Z

Phoenix Effect - Carry Me tab

-------------------------------------------------------------------------
CARRY ME  Phoenix Effect
-------------------------------------------------------------------------
Tabbed by: Kengus

Cool new song by a cool new band. This is as close as I could get it. Try
it out.

Official website: http://www.phoenixeffect.fi

Standard tuning

INTRO
e|---------------------------------|
B|---------------------------------| This is just two bars, the pattern
G|---2-------0--------2-------0----| then continues in the verse
D|-----2-0h2---0h2------2-0h2---2--|
A|-0----------------0--------------|
E|---------------------------------|

VERSE1
   Asus2                                                           Fmaj7
e|-----------------------------------------------------------------------|
B|-----------------------------------------------------------------------|
G|---2-------0--------2-------0------2-------0--------2-------0------2---|
D|-----2-0h2---0h2------2-0h2---2------2-0h2---0h2------2-0h2---2------3-|
A|-0----------------0--------------0----------------0--------------------|
E|-----------------------------------------------------------------1-----|
                                                                 Asus2
e|-----------------------------------------------------------------------|
B|-----------------------------------------------------------------------|
G|-0h2p0--------2---0h2p0--------2---0h2p0--------2---0h2p0--------2-----|
D|-------3--------3-------3--------3-------3--------3-------3--------2---|
A|---------3----------------3----------------3----------------3--0-------|
E|------------1----------------1----------------1------------------------|
                                                             Fmaj7
e|-----------------------------------------------------------------------|
B|-----------------------------------------------------------------------|
G|-----0--------2-------0------2-------0--------2-------0------2---0h2p0-|
D|-0h2---0h2------2-0h2---2------2-0h2---0h2------2-0h2---2------3-------|
A|------------0--------------0----------------0--------------------------|
E|-----------------------------------------------------------1-----------|
        G            Asus2
e|--------------------------------------------------|
B|--------------------------------------------------|
G|--------4-4h5p4------2-------0--------2-------0---|
D|-3--------------5------2-0h2---0h2------2-0h2---0-|
A|---3---------------0----------------0-------------|
E|------3-------------------------------------------|

VERSE1 (with lyrics)
Asus2
 Open my mind let the thought follow in

The wake of the scent of the summer wind beckoning
Fmaj7
      This is the chance I've been needing

This is the chance I've been looking for
Asus2
 Beating the moths to the flame of my fear
                      Fmaj7  G  Asus2
Burning holes in me

VERSE2 (play verse 3 like this as well)
   Asus2                                                           Fmaj7
e|-----------------------------------------------------------------------|
B|-----------------------------------------------------------------------|
G|---2-------0--------2-------0------2-------0--------2-------0------2---|
D|-----2-0h2---0h2------2-0h2---2------2-0h2---0h2------2-0h2---2------3-|
A|-0----------------0--------------0----------------0--------------------|
E|-----------------------------------------------------------------1-----|
                                                                 Asus2
e|-----------------------------------------------------------------------|
B|-----------------------------------------------------------------------|
G|-0h2p0--------2---0h2p0--------2---0h2p0--------2---0h2p0--------2-----|
D|-------3--------3-------3--------3-------3--------3-------3--------2---|
A|---------3----------------3----------------3----------------3--0-------|
E|------------1----------------1----------------1------------------------|
                                                            Fmaj7  G6
e|-----------------------------------------------------------0-----0-----|
B|-----------------------------------------------------------1-----3-----|
G|-----0--------2-------0------2-------0--------2-------0----2-----4-----|
D|-0h2---0h2------2-0h2---2------2-0h2---0h2------2-0h2---2--3-----5-----|
A|------------0--------------0----------------0--------------3-----5-----|
E|-----------------------------------------------------------1-----3-----|
  Dsus2
e|-0---------------------|
B|-3---------------------|
G|-2---------------------|
D|-02h3-3-3/5-5-5-5-3-2-|
A|-----------------------|
E|-----------------------|

VERSE2 (with lyrics)
Asus2
 Gracing my hopes with the scars of my days
[ Tab from: http://www.guitaretab.com/p/phoenix-effect/181366.html ]
Though long lived and prosperous memory fades
Fmaj7
     And I cannot recall ever seeing

Such as my newfound need for believing
Asus2
 Nothing yet not unlike anything, I've ever been before
         Fmaj7         G6       Dsus2
Like I was never there,   was I ever there

PRE-CHORUS (strum the chords)
Fmaj7                    G6         Asus2   A              Fmaj7 = 133210
     Then what are these memories I know we share             G6 = 355430
                                                           Asus2 = x02200
CHORUS (strumming)                                             A = x02220
Em                                                            Em = 022000
   Carry me to the river of my fortune                         C = x32010
C                    G         D/F#                            G = 320033
   Faithfully I will follow no guiding light                D/F# = 200232
Em                                                             F = 133211
   Carry me to your blossoming orchard
C                    G         F
   Thankfully I will let you carry me

INTERLUDE (repeat intro pattern x2)

[originally posted on ultimate-guitar.com]

VERSE3 (play same as verse2)
Asus2
Hold on to me as reality breaks

The liquid inside the sugar core evaporates
Fmaj7
      This is the taste I've been savouring

This is the tonic my pain has me swallowing
Asus2
 Give me clarity, make me forget, my name I never knew
         Fmaj7         G6       Dsus2
Like I was never there,   was I ever there

PRE-CHORUS (strum the chords)
Fmaj7                    G6         Asus2   A
     Then what are these memories I know we share

CHORUS (strumming)
Em
   Carry me to the river of my fortune
C                    G         D/F#
   Faithfully I will follow no guiding light
Em                                   C
   Carry me to your blossoming orchard
       G       D/F#       C...
I will let you      carry me

INTERLUDE/SOLO
...Dadd4add9       Em  G                               Dadd4add9 = x54030
             Carry me                                     D6sus2 = x57700
      C  Dadd4add9  A                                     Fmaj7*
Carry me, hey                                             e-8--
C  Dadd4add9  G  Em  C  D6sus2  Fmaj7*                    B-10-
                                                          G-9--
CHORUS (x2)                                               D-10-
Em                                                        A-8--
   Carry me to the river of my fortune                    E-x--
C                    G         D/F#
   Faithfully I will follow no guiding light
Em
   Carry me to your blossoming orchard
C                    G       D/F#
   Thankfully I will let you
Em
   Carry me to the river of my fortune
C                    G         D/F#
   Faithfully I will follow no guiding light
Em
   Carry me to your blossoming orchard
C                    G         F
   Thankfully I will let you carry me

INTERLUDE (repeat intro pattern)

VERSE4/OUTRO
   Asus2                                                           Fmaj7
e|-----------------------------------------------------------------------|
B|-----------------------------------------------------------------------|
G|---2-------0--------2-------0------2-------0--------2-------0------2---|
D|-----2-0h2---0h2------2-0h2---2------2-0h2---0h2------2-0h2---2--3---3-|
A|-0----------------0--------------0----------------0--------------3-----|
E|-----------------------------------------------------------------1-----|
                                                                 Asus2
e|-----------------------------------------------------------------------|
B|-----------------------------------------------------------------------|
G|-0h2p0--------2---0h2p0--------2---0h2p0--------2---0h2p0--------2-----|
D|-------3----3---3-------3----3---3-------3----3---3-------3--------2---|
A|---------3--3-------------3--3-------------3--3-------------3--0-------|
E|------------1----------------1----------------1------------------------|
                                                             
e|--------------------------------------------|
B|--------------------------------------------|
G|-----0--------2-------0------2-------0------|
D|-0h2---0h2------2-0h2---2------2-0h2---2----|
A|------------0--------------0-------------0--|
E|--------------------------------------------|

VERSE4/OUTRO (with lyrics)
Asus2
 Open your arms let this whipping boy in

Away from the faces of ruthless gods harrowing
Fmaj7
      This is the home I've been making

This is the place of my heart I've been searching
Asus2
 Here lead the footprints the beach was saving just for me.

=========================================================================
Comment, rate, appreciate!
Related for Carry Me tab