Song name
# A B C D E F G H I J K L M N O P Q R S T U V W X Y Z

Phoenix - Lisztomania Acoustic tab

Phoenix - "Lisztomania (Acoustic)"
Wolfgang Amadeus Phoenix [2009]

Transcribed by Chris Hui
( chrisjhui@gmail.com | http://oneonorange.blogspot.com )
This is a transcription of the acoustic duo performance of "Lisztomania" not the album 
Listen/watch recording to learn rhythm and variations.  Tip: use thumb for most notes on 
string - chord fingerings should form naturally with that assumption.

----------------------------------------------------------------------

Standard Tuning
CAPO ON 4
(tab is relative to capo)

LEAD-IN
e--7---|
B--7---|
G--7---|
D--0---|
A--X---|
E--X---|

VERSE
"So sentimental, not sentimental no..."
e--0--0-------||----0--5--5--|
B--3--3-(5p3)-||----3--3--3--|
G--5--4-------||x2--5--5--5--|
D--5--5-------||----5--5--4--|
A--X--X-------||----X--0--X--|
E--3--0-------||----3--X--2--|

CHORUS
e------------------0---------------7-----------------|--0--5--7----5--|
B------------------0---------------7-----------------|--3--3--3----3--|
G--0-0-0-0-0-0-0-0-5-5-5-5-5-5-5-5-7-7-7-7-7-7-7-7-7-|--5--5--5----5--|
D--5-5-5-5-5-5-5-5-5---------------0-0-0-0-0-0-0-0-0-|--5--5--4-OR-4--|
A--3---------------X---------------X-----------------|--X--0--0----X--|
E------------------5---------------X-----------------|--3--X-------2--|

VERSE x2
"Follow, misguide, stand still..." / "Let's go slowly, discouraged..."

CHORUS
e------------------0---------------7-----------------||
B------------------0---------------7-----------------||
G--0-0-0-0-0-0-0-0-5-5-5-5-5-5-5-5-7-7-7-7-7-7-7-7-7-||x2
D--5-5-5-5-5-5-5-5-5---------------0-0-0-0-0-0-0-0-0-||
A--3---------------X---------------X-----------------||
E------------------5---------------X-----------------||

FINAL CHORUS
e--0--5--0--------||
B--3--3--3-(5p3)--||
G--5--5--4--------||x2
D--5--5--5--------||
A--X--0--X--------||
E--3--X--0--------||
Tap to rate this tab
 
# A B C D E F G H I J K L M N O P Q R S T U V W X Y Z