Song name
# A B C D E F G H I J K L M N O P Q R S T U V W X Y Z

Phylum - Palagot Sa Kontra tab

This is my second tab here… It’s called Palagot sa Kontra by the phylum!!! This song
I think this is somehow right about 98% accurate… Kapag nakipagbalikan ang ex-gf mo sayo,
dapat ang kantahin mo!!! Hi to our lead guitarist, rey kulot why nagpari naman kah!! To 
band mates jershon at Junkjik... to my best friend of all time, Ivan Cabato and to all
LHS, we rock!!!… and to all girls, im very available, khit sino kayo txt nyo ko for 
09183865859, 09155499854, 09268955888… E-mail me at rhen_steph@yahoo.com...

Tuning: Standard

* = palm mute

Intro
The second time, drums come in…
e|-----------------------------------------------------------------|
B|-----------------------------------------------------------------|
G|-----------------------------------------------------------------|
D|-----5----5---5----5---5--5----5--5-5-----5--5-5-----------------|2x
A|--333--33---3---222-22--2---000-00-0-----------------------------|
E|---------------------------------------333-33-3------------------|
    **********************************************
Intro2
Gtr1
e|-----------------------------------------------------------------|
B|-----------------------------------------------------------------|
G|-55------44------------------------------------------------------|
D|-55------44------77--------55------------------------------------|
A|-33------22------77--------55------------------------------------|
E|-----------------55--------33------------------------------------|

Gtr2
All notes in the B string except the last(13) are played at the same time when the Gtr1 strums…

e|--------12-15------12-15------12-15------12-15-------------------|
B|--13-13-------12-12------10-10-------8-8--------13---------------|
G|-----------------------------------------------------------------|
D|-----------------------------------------------------------------|
A|-----------------------------------------------------------------|
E|-----------------------------------------------------------------|

Verse1
Do not mute the G5 in the 4th round, let it ring…
e|-----------------------------------------------------------------|
B|-----------------------------------------------------------------|
G|-55-------------55-----------------------------------------------|
D|-55-------------55--------77----------55-------------------------|4x
A|-33-------------22--------77----------55-------------------------|
E|--------------------------55----------33-------------------------|
   *****************************************

e|-----------------------------------------------------------------|
B|-----------------------------------------------------------------|
G|--555555555----55555555------------------------------------------|
D|--555555555----55555555--777777777--555555555--------------------|
A|--333333333----22222222--777777777--555555555--------------------|
E|-------------------------555555555--333333333--------------------|
    Mata…       Ahhh……………………………………………… Hubag…
e|-----------------------------------------------------------------|
B|-----------------------------------------------------------------|
G|--555555555----55555555------------------------------------------|
D|--555555555----55555555--777777777--555555555--------------------|
A|--333333333----22222222--777777777--555555555--------------------|
E|-------------------------555555555--333333333--------------------|
    Mata………………………………………………………………………………………………………

Verse2
Do not mute the G5 in the 4th round, let it ring…
e|-----------------------------------------------------------------|
B|-----------------------------------------------------------------|
G|-55-------------55-----------------------------------------------|
D|-55-------------55--------77----------55-------------------------|4x
A|-33-------------22--------77----------55-------------------------|
E|--------------------------55----------33-------------------------|
   *****************************************


e|-----------------------------------------------------------------|
B|-----------------------------------------------------------------|
G|--555555555----55555555------------------------------------------|
D|--555555555----55555555--777777777--555555555--------------------|
A|--333333333----22222222--777777777--555555555--------------------|
E|-------------------------555555555--333333333--------------------|
   Baka………………………………………………             Dako…………………………………………
e|-----------------------------------------------------------------|
B|-----------------------------------------------------------------|
G|--555555555----55555555------------------------------------------|
D|--555555555----55555555--777777777--555555555--------------------|
A|--333333333----22222222--777777777--555555555--------------------|
E|-------------------------555555555--333333333--------------------|
    Mata        Ehoooo…………………………………………………………………

Chorus
Put a break on G5 in the 1st round
e|-----------------------------------------------------------------|
B|-----------------------------------------------------------------|
G|--55-------------------------------------------------------------|
D|--55---------777--------—33----------------555-------------------|2x
A|--33---------777—--------33----------------555-------------------|
E|-------------555—--------11----------------333-------------------|

e|-----------------------------------------------------------------|
B|-----------------------------------------------------------------|
G|--55555----------------------55555-------------------------------|
D|--55555---------77777--------55555---------77777-----------------|
A|--33333---------77777--------33333---------77777-----------------|
E|----------------55555----------------------55555-----------------|

Put a break on G5…
e|-----------------------------------------------------------------|
B|-----------------------------------------------------------------|
G|--55-------------------------------------------------------------|
D|--55---------777--------—33----------------555-------------------|
A|--33---------777—--------33----------------555-------------------|
E|-------------555—--------11----------------333-------------------|

(Repeat Intro2)

Verse3 and verse4
(Do the same as in verses 1 and 2)

(Repeat Chorus)
e|-----------------------------------------------------------------|
B|-----------------------------------------------------------------|
G|-----7----5--------9------5--------------------------------------|
D|-----7----5--------9------5--------------------------------------|8x
A|-----5----3--------7------3--------------------------------------|
E|-----------------------------------------------------------------|
The Base
G|-----------------------------------------------------------------|
D|-----------------------------------------------------------------|8x
A|-----5----3--------7------3--------------------------------------|
E|-----------------------------------------------------------------|

(Repeat Chorus)
e|-----------------------------------------------------------------|
B|-----------------------------------------------------------------|
G|-----------------------------------------------------------------|
D|-----5----5---5----5---5--5----5--5-5-----5--5-5-----------------|4x
A|--333--33---3---222-22--2---000-00-0-----------------------------|
E|---------------------------------------333-33-3------------------|
    **********************************************
e|-----------------------------------------------------------------|
B|-----------------------------------------------------------------|
G|--5--------------------------------------------------------------|
D|--5--------------------------------------------------------------|
A|--3--------------------------------------------------------------|
E|-----------------------------------------------------------------|

=The End=
Tap to rate this tab
# A B C D E F G H I J K L M N O P Q R S T U V W X Y Z