Pieces Of Rome - Gone By Dawn tab

Gtr.1
|------------------------------------------------------------------------------------|
|------------------------------------------------------------------------------------|
|------------------------------------------------------------------------------------|
|-------------7--5-----------------3--3--3-------------------------5-3-2-------------|
|------5-5----------8-7----1-1-------------1------0--1/5---3-3------------3----------|
|-----------------------------------------------1------------------------------------|


|------------------------------------------------------------------------------------|
|------------------------------------------------------------------------------------|
|------------------------------------------------------------------------------------|
|-------------7--5-----------------3--3--3--------------------------------2-2--------|
|------5-5----------8-7----1-1-------------1------0--1/5---0-0-0-0------------0------|
|----------------------------------------------1-------------------------------------|

Gtr.2
|--------------------------------------------------------|
|--------------------------------------------------------|
|-777777777777-10--10--10--10--999999999999--12-12-12-12-|
|--------------------------------------------------------|
|-555555555555-8---8---8---8---777777777777--10-10-10-10-|
|--------------------------------------------------------|

|------------------------------------------------------------------------------------------------|
|------------------------------------------------------------------------------------------------|
|-10-10-10-10-10-10-10-10-10-10-10-10-15-15-15-15-14-14-14-14-14-14-14-14-14-14-14-14-14-14-14-14|
|------------------------------------------------------------------------------------------------|
|-8--8--8--8--8--8--8--8--8--8--8--8--13-13-13-13-12-12-12-12-12-12-12-12-12-12-12-12-12-12-12-12|
|------------------------------------------------------------------------------------------------|

Gtr.3   
|---------------------------------------------| |------------------------------------------------|
|-6-5---6-5----6-5-----6-5------6-6-6-6/8-6-5-| |-6-5---6-5----6-5-----6-5------6-6-6-6/8-6-5--6-|
|----7------7------7-------7------------------| |----7------7-------7-------7-------------------7|
|---------------------------------------------| |------------------------------------------------|
|---------------------------------------------| |------------------------------------------------|
|---------------------------------------------| |------------------------------------------------|

gtr.4
|-------------------------------------------------------|     
|-18-17---18-17---18-17----18-17---18-18-18-18/20-18-17-|     
|------19------19------19-------19----------------------|   
|-------------------------------------------------------|  
|-------------------------------------------------------| 
|-------------------------------------------------------| 

|----------------------------------------------------------------------|
|-18-17---18-17------18-17------18-17-------18-18-18-18/20-18-17-18----|
|------19-------19--------19---------19-----------------------------19-|
|----------------------------------------------------------------------|
|----------------------------------------------------------------------|  
|----------------------------------------------------------------------|  

Verse

Gtr.1
|---5-5---1-1---6-6---5-5---|
|---6-6---1-1---6-6---5-5---|
|---7-7---2-2---7-7---6-6---|
|---7-7---3-3---8-8---7-7---|
|---5-5---3-3---8-8---7-7---|
|---------1-1---6-6---5-5---|

Gtr.2
|-----------------------------------------------|
|----------10-10-10-8-8-8-----------------------|
|--7-7-7----------------------10-10-10-9-9-9-9--|
|-----------------------------------------------|
|-----------------------------------------------|
|-----------------------------------------------|

Gtr.2&3
|-------------------------------------------------|
|-------------------------------------------------|
|-------------------------------------------------|
|------------7-7-7-5-5-5--------------------------|
|---5-5-5------------------8-8-8-7-7-7-7----------|
|-------------------------------------------------|

Outro

Gtr.1
|---10----6----8------8---||---10----6----8-----5-----|
|---10----6----8------8---||---10----6----8-----5-----|
|---10----7----10-----9---||---10----7----10----6-----|
|-------------------------||--------------------------|
|-------------------------||--------------------------|
|-------------------------||--------------------------|

http://piecesofrome.co.uk/
Tap to rate this tab
 
# A B C D E F G H I J K L M N O P Q R S T U V W X Y Z