Song name
# A B C D E F G H I J K L M N O P Q R S T U V W X Y Z

Pierce The Veil - Im Low On Gas And You Need A Jacket tab

Please Like The Tab!
FOR ANY HELP REGARDING THE SONG.
Instagram: @_akt
Twitter: @kaprice__
Facebook: Ashante Taylor
Email: ashantetaylor@yahoo.com

STANDARD TURNING

(Opening Tremolo)
E---------------------|
B---------------------|
G-----------7---------|
D---9---7---7---7---5-|
A---9---7---5---7---5-|
E---7---5-------5---3-|

(Verse 1 Tremolo)
E----------------------|
B----------------------|
G------------7---------|
D---9---11---7---7---5-|
A---9---11---5---7---5-|
E---7---9--------5---3-|

(Chorus)
E---------------------------------------------------------------------|
B---------------------------------------------------------------------|
G-----7--7-7-----6--6-6-----7--7-7----6--6-6--------------------------|
D----------------------------------------------5-----3-----5-----7----| X2
A---55-55-5----44-44-4----55-55-5---44-44-4----5x8---4x8---5x8---7x8--|
E----------------------------------------------3-----2-----3-----5----|

(Verse 2 Tremolo)
E----------------------|
B----------------------|
G------------7---------|
D---9---11---7---7---5-|
A---9---11---5---7---5-|
E---7---9--------5---3-|

(Chorus)
E---------------------------------------------------------------------|
B---------------------------------------------------------------------|
G-----7--7-7-----6--6-6-----7--7-7----6--6-6--------------------------|
D----------------------------------------------5-----3-----5-----7----| X2
A---55-55-5----44-44-4----55-55-5---44-44-4----5x8---4x8---5x8---7x8--|
E----------------------------------------------3-----2-----3-----5----|

(Pre Solo)
E-----------------------------------------------|
B-----------------------------------------------|
G---7-6--6--------11--9--9--------12--9--9------|
D-77-77-7--X4---77--77--7--X2---77--77--7--X2---|
A-----------------------------------------------|
E-----------------------------------------------|

              (Tremolo) (Strum)
E-----------------------5-|
B-----------------------7-|
G---7-----6-------------7-|
D---7x6---7X6---5---7---7-|
A---5-----4-----5---7---5-|
E---------------3---5-----|

(Solo)
E-----------------------------------------------|
B-----------------------------------------------|
G---7-6--6--------11--9--9--------12--9--9------|
D-77-77-7--X4---77--77--7--X2---77--77--7--X2---|
A-----------------------------------------------|
E-----------------------------------------------|

E---------------------------------------------------------------------|
B---------------------------------------------------------------------|
G---------------------------------------------------------------------|
D-12-12-12-12-------------------------------7-7-7-7--7-7-7-7--5-5-5-5-|
A------------12-12-12-12--9-9-9-9--7-7-7-7--7-7-7-7-------------------|
E---------------------------------------------------------------------|

E--------------------------------------------------------------------|
B--------------------------------------------------------------------|
G--------------------------------------------------------------------|
D-4-4-4-4--------------------------------------7X8--5X8--4-----------|
A----------2-2-2-2--4-4-4-4--5-5-5-5--7-7-7-7------------------------|
E--------------------------------------------------------------------|

(Chorus)
E----------------------------------------------------------|
B----------------------------------------------------------|
G-----6--6-6-----7--7-7----6--6-6--------------------------|
D-----------------------------------5-----3-----5-----7----|
A---44-44-4----55-55-5---44-44-4----5x8---4x8---5x8---7x8--|
E-----------------------------------3-----2-----3-----5----|

E---------------------------------------------------------------------|
B---------------------------------------------------------------------|
G-----7--7-7-----6--6-6-----7--7-7----6--6-6--------------------------|
D----------------------------------------------5-----3-----5-----7----|
A---55-55-5----44-44-4----55-55-5---44-44-4----5x8---4x8---5x8---7x8--|
E----------------------------------------------3-----2-----3-----5----|

(Ending Chord)
E------------|
B------------|
G------7-----|
D------7-----|
A------5-----|
E------------|

Thank You! Please Like The Tab!
FOR ANY HELP REGARDING THE SONG.
Instagram: @_akt
Twitter: @kaprice__
Facebook: Ashante Taylor
Email: ashantetaylor@yahoo.com
Tap to rate this tab
 
# A B C D E F G H I J K L M N O P Q R S T U V W X Y Z