Song name
# A B C D E F G H I J K L M N O P Q R S T U V W X Y Z

Piero Umiliani - Crepuscolo Sul Mare tab

-------------------------------------------------------------------------------
Crepuscolo Sul Mare - Piero Umiliani
-------------------------------------------------------------------------------


Tabbed by: Eric6879

Tuning: Standard


e|---7-----5--7-----5--7-----5--7/10---8-------------------------------------|
B|-------5--------5--------5---------8---8-----------------------------------|
G|-----5--------5--------5---------------------------------------------------|     x2
D|---------------------------------------------------------------------------|
A|---------------------------------------------------------------------------|
E|---------------------------------------------------------------------------|

e|--7-----5--7-----5--7-----5--7---5-----3-----1--3-----1--3-----1--3---1----|
B|------5--------5--------5------5---5-------1--------1--------1------1---1--|
G|----5--------5--------5------------------1--------1--------1---------------|
D|---------------------------------------------------------------------------|
A|---------------------------------------------------------------------------|
E|---------------------------------------------------------------------------|

e|--2-----0--2-----0--2-----0--2---0-------1-------1-------1-------4---4/7---|
B|------1--------1--------1------1---1---------0h3-----0h3-----3/6---6-------|
G|----2--------2--------2--------------------1-------1-------1---------------|
D|---------------------------------------------------------------------------|
A|---------------------------------------------------------------------------|
E|---------------------------------------------------------------------------|

e|---7-----5--7-----5--7-----5--7/10---8-------------------------------------|
B|-------5--------5--------5---------8---8-----------------------------------|
G|-----5--------5--------5---------------------------------------------------|     x2
D|---------------------------------------------------------------------------|
A|---------------------------------------------------------------------------|
E|---------------------------------------------------------------------------|

e|--7-----5--7-----5--7-----5--7---5-----3-----1--3-----1--3-----1--3---1----|
B|------5--------5--------5------5---5-------1--------1--------1------1---1--|
G|----5--------5--------5------------------1--------1--------1---------------|
D|---------------------------------------------------------------------------|
A|---------------------------------------------------------------------------|
E|---------------------------------------------------------------------------|

e|--2-----0--2-----0--1-----1--0---------------------------------------------|
B|------1--------1--------0------3-------(x2)--------------------------------|
G|----2--------2--------1----------------------------------------------------|
D|---------------------------------------------------------------------------|
A|---------------------------------------------------------------------------|
E|---------------------------------------------------------------------------|

e|----------0-----5--0--1-----1--0-------------------------------------------|
B|----1---1---1-------------0------3-----(x2)--------------------------------|
G|--2---2-------2---------1--------------------------------------------------|
D|---------------------------------------------------------------------------|
A|---------------------------------------------------------------------------|
E|---------------------------------------------------------------------------|

e|----------0---0--5-----------5---5--8---8----------------------------------|
B|----1---1---1----------5---5---5------5------------------------------------|
G|--2---2--------------5---5-------------------------------------------------|
D|-------------------7-------------------------------------------------------|
A|---------------------------------------------------------------------------|
E|---------------------------------------------------------------------------|

e|--8----6--8-----6--8-----6--8---6------7-----5--7-----5--7-----5--7---5----|
B|-----6--------6--------6------6---6--------5--------5--------5------5---5--|
G|---6--------6--------6-------------------5--------5--------5---------------|
D|---------------------------------------------------------------------------|
A|---------------------------------------------------------------------------|
E|---------------------------------------------------------------------------|

e|-8----6--8-----6--8-----6--8---6------7-----5--7-----5--7-----5--7/8--8/12-|
B|----6--------6--------6------6---6--------5--------5--------5--------------|
G|--6--------6--------6-------------------5--------5--------5----------------|
D|---------------------------------------------------------------------------|
A|---------------------------------------------------------------------------|
E|---------------------------------------------------------------------------|

e|--12-------8--12-------8--12-------8--12----8------------------------------|
B|--------10----------10----------10-------10---10---------------------------|
G|-----11----------11----------11--------------------------------------------|
D|---------------------------------------------------------------------------|
A|---------------------------------------------------------------------------|
E|---------------------------------------------------------------------------|

e|--12-------8--12-------8--12-------8--12----8------------------------------|
B|--------10----------10----------10-------10---10---------------------------|
G|-----10----------10----------10--------------------------------------------|
D|---------------------------------------------------------------------------|
A|---------------------------------------------------------------------------|
E|---------------------------------------------------------------------------|

e|--12-----8--12------8--12------8--12---8-----------------------------------|
B|-------9----------9----------9-------9---9---------------------------------|
G|----10---------10---------10-----------------------------------------------|
D|---------------------------------------------------------------------------|
A|---------------------------------------------------------------------------|
E|---------------------------------------------------------------------------|

e|--12------8--12-------8--12---10---8---10\7--------------------------------|
B|-------10---------10-------------------------------------------------------|
G|-----9----------9-----------9----9---9-------------------------------------|
D|---------------------------------------------------------------------------|
A|---------------------------------------------------------------------------|
E|---------------------------------------------------------------------------|

---------------------------------------



You play the whole thing twice, and this:
e|---------------------------------------------------------------------------|
B|---------------------------------------------------------------------------|
G|--2-----2-----2---1-----1-----1--------------------------------------------|     x3
D|------2-----2---2---0h2---0h2---2------------------------------------------|
A|----3-----3----------------------------------------------------------------|
E|---------------------------------------------------------------------------|

Is played the second time through after this:

e|----------0-----5--0--1-----1--0-------------------------------------------|
B|----1---1---1-------------0------3-----(x2)--------------------------------|
G|--2---2-------2---------1--------------------------------------------------|
D|---------------------------------------------------------------------------|
A|---------------------------------------------------------------------------|
E|---------------------------------------------------------------------------|


Tap to rate this tab
# A B C D E F G H I J K L M N O P Q R S T U V W X Y Z