Song name
# A B C D E F G H I J K L M N O P Q R S T U V W X Y Z

Pig Destroyer - Hymn tab

----------------------------------------------------------------------------
			     Hymn - Pig Destroyer
----------------------------------------------------------------------------
Tabbed by: Brian
Email:i_hide_from_u@hotmail.com
Tuning:

e|------------------------------------------------------------------|
B|------------------------------------------------------------------|
G|7---7----4------7----7---4------7---7----4------7----7---4---4444-|
D|8--10----5------8---10---5------8--10----5------8---10---5---5555-|
A|8--10----5------8---10---5------8--10----5------8---10---5---5555-|
E|6---8----3------6----8---3------6---8----3------6----8---3---3333-|

I believe this part is standard rather than drop D because of the sliding Scott makes 
changing chords

e|-----------------------------------------------------------------|
B|-----------------------------------------------------------------|
G|7-------------------------------9--------------------------------|
D|8------------------------------10--------------------------------|  4X
A|8--5-5-5-5-5-5-5-5-5-5-5-5-5-5-10--5-5-5-5-5-5-5-5-5-5-5-5-5-5---|
E|6--3-3-3-3-3-3-3-3-3-3-3-3-3-3--8--3-3-3-3-3-3-3-3-3-3-3-3-3-3---|
     pm.........................     ...........................

I don't know the next part, but then it goes back to the beginning.

e|------------------------------------------------------------------|
B|------------------------------------------------------------------|
G|7---7----4------7----7---4------7---7----4------7----7---4---4444-|
D|8--10----5------8---10---5------8--10----5------8---10---5---5555-|
A|8--10----5------8---10---5------8--10----5------8---10---5---5555-|
E|6---8----3------6----8---3------6---8----3------6----8---3---3333-|
Tap to rate this tab
 
# A B C D E F G H I J K L M N O P Q R S T U V W X Y Z