Song name
# A B C D E F G H I J K L M N O P Q R S T U V W X Y Z

Pillows - I Know You tab

I know You
by the pillows
tabbed by mike Cortez
album: i really don't know...but it sounds good though.^-^
tuning:standard(ebgdaE)
intro:
e:-0:-0-0-0-0-0-0-0:-------------|
b:-1:-1-1-1-1-1-1-1:-1-1-1-1-1-1-|
g:-0:-0-0-0-0-0-0-2:-2-2-2-2-2-2-|
d:-2:-2-2-2-2-2-2-2:-2-2-2-2-2-2-|<--
a:-3:-3-3-3-3-3-3-0:-0-0-0-0-0-0-|  |
E:-------------------------------|  |
still the intro:                    |
e:-1:-1-1-1-1-1-1-3:-3-3-3-3-3-3-|  |
b:-1:-1-1-1-1-1-1-3:-3-3-3-3-3-3-|  |
g:-2:-2-2-2-2-2-2-0:-0-0-0-0-0-0-|<-/
d:-3:-3-3-3-3-3-3-0:-0-0-0-0-0-0-|  |
a:-3:-3-3-3-3-3-3-2:-2-2-2-2-2-2-|  |
E:-1:-1-1-1-1-1-1-3:-3-3-3-3-3-3-|  |
Note:(do the intro chords twice.)----
verse:
e:-------3-3-3-------------|
b:-1-1-1-3-3-3-1-1-1-1-1-1-|
g:-0-0-0-0-0-0-2-2-2-2-2-2-|
d:-2-2-2-0-0-0-2-2-2-2-2-2-|
a:-3-3-3-2-2-2-0-0-0-0-0-0-|
E:-------3-3-3-------------|

e:-1-1-1-1-1-1-3-3-3-3-3-3-|
b:-1-1-1-1-1-1-3-3-3-3-3-3-|
g:-2-2-2-2-2-2-0-0-0-0-0-0-|
d:-3-3-3-3-3-3-0-0-0-0-0-0-|
a:-3-3-3-3-3-3-2-2-2-2-2-2-|
E:-1-1-1-1-1-1-3-3-3-3-3-3-|

e:-------3-3-3-------------|
b:-1-1-1-3-3-3-1-1-1-1-1-1-|
g:-0-0-0-0-0-0-2-2-2-2-2-2-|
d:-2-2-2-0-0-0-2-2-2-2-2-2-|
a:-3-3-3-2-2-2-0-0-0-0-0-0-|
e:-------3-3-3-------------|
prechorus:
e:-1-1-1-1-1-1-1-1-1-1-1-1-1:-|
b:-1-1-1-1-1-1-1-1-1-1-1-1-1:-|
g:-2-2-2-2-2-2-1-1-1-1-1-1-1:-|
d:-3-3-3-3-3-3-3-3-3-3-3-3-3:-|
a:-3-3-3-3-3-3-3-3-3-3-3-3-3:-|
E:-1-1-1-1-1-1-1-1-1-1-1-1-1:-|
chorus:(2x)
e:-------3-3-3-------1-1-1-------3-3-3-------3-3-3-3^:-|
b:-1-1-1-3-3-3-1-1-1-1-1-1-1-1-1-3-3-3-1-1-1-3-3-3-3^:-|
g:-0-0-0-0-0-0-2-2-2-2-2-2-0-0-0-0-0-0-0-0-0-0-0-0-0:--|
d:-2-2-2-0-0-0-2-2-2-3-3-3-2-2-2-0-0-0-2-2-2-0-0-0-0:--|
a:-3-3-3-2-2-2-0-0-0-3-3-3-3-3-3-2-2-2-3-3-3-2-2-2-2^:-|
e:-------3-3-3-------1-1-1-------3-3-3-------3-3-3-3^:-|
verse2:
e:-------3-3-3-------------|
b:-1-1-1-3-3-3-1-1-1-1-1-1-|
g:-0-0-0-0-0-0-2-2-2-2-2-2-|
d:-2-2-2-0-0-0-2-2-2-2-2-2-|
a:-3-3-3-2-2-2-0-0-0-0-0-0-|
E:-------3-3-3-------------|

e:-1-1-1-1-1-1-3-3-3-3-3-3-|
b:-1-1-1-1-1-1-3-3-3-3-3-3-|
g:-2-2-2-2-2-2-0-0-0-0-0-0-|
d:-3-3-3-3-3-3-0-0-0-0-0-0-|
a:-3-3-3-3-3-3-2-2-2-2-2-2-|
E:-1-1-1-1-1-1-3-3-3-3-3-3-|

e:-------3-3-3-------------|
b:-1-1-1-3-3-3-1-1-1-1-1-1-|
g:-0-0-0-0-0-0-2-2-2-2-2-2-|
d:-2-2-2-0-0-0-2-2-2-2-2-2-|
a:-3-3-3-2-2-2-0-0-0-0-0-0-|
e:-------3-3-3-------------|
prechorus:
e:-1-1-1-1-1-1-1-1-1-1-1-1-1:-|
b:-1-1-1-1-1-1-1-1-1-1-1-1-1:-|
g:-2-2-2-2-2-2-1-1-1-1-1-1-1:-|
d:-3-3-3-3-3-3-3-3-3-3-3-3-3:-|
a:-3-3-3-3-3-3-3-3-3-3-3-3-3:-|
E:-1-1-1-1-1-1-1-1-1-1-1-1-1:-|
chorus:(2x)
e:-------3-3-3-------1-1-1-------3-3-3-------3-3-3-3^:-|
b:-1-1-1-3-3-3-1-1-1-1-1-1-1-1-1-3-3-3-1-1-1-3-3-3-3^:-|
g:-0-0-0-0-0-0-2-2-2-2-2-2-0-0-0-0-0-0-0-0-0-0-0-0-0:--|
d:-2-2-2-0-0-0-2-2-2-3-3-3-2-2-2-0-0-0-2-2-2-0-0-0-0:--|
a:-3-3-3-2-2-2-0-0-0-3-3-3-3-3-3-2-2-2-3-3-3-2-2-2-2^:-|
e:-------3-3-3-------1-1-1-------3-3-3-------3-3-3-3^:-|

there you have it...i'm trying to figure out the solo but if anyone does..tab that 
sonofabitch...
laters,
mike cortez
Tap to rate this tab
# A B C D E F G H I J K L M N O P Q R S T U V W X Y Z