Song name
# A B C D E F G H I J K L M N O P Q R S T U V W X Y Z

Pillows - My Foot tab

Help us improve GuitareTab! Take a short survey!
This is my first tab submission. I tune my guitar by ear so i hope its not off tune by 
much.
This is done in drop D. I'm not sure if this is novice, intermediate, or intermediate 
a novice,
so I'm just gonna go with intermediate.The song is "The Pillows - My Foot" and
The Album is "My Foot"

#1 (00:11-00:17)Intro
*this is played through an almost clean drive. just
barely any drive should be used with this if possible

e-------------------------|
b-------------------------|
g-------------------------|
d--9-11-11------9-11-11---|
a-7------------7----------|
d-------------------------|

#2 (00:18-00:32)This is played through twice
e----------------------------------------------------------|
b----------------------------------------------------------|
g----------------------------------------------------------|
d--9-11-11----9-11-11----9-11-11---11-12-12-11-11-12-12-11-|
a-7----------7----------7----------------------------------|
d----------------------------------------------------------|

#3 (00:33-00:46) wait

#4 (00:47-01:00)
e-----------------------------------------------------------------|
b-----------------------------------------------------------------|
g-14-14-14-14-14-14-14-14-9-9-9-9-9-9-9-9-11-11-11-11-11-11-11-11-|
d-12-12-12-12-12-12-12-12-7-7-7-7-7-7-7-7-9--9--9--9--9--9--9--9--|
a-----------------------------------------------------------------|
d-----------------------------------------------------------------|

e---------------------------------------------------------|
b---------------------------------------------------------|
g---------------------------------------------------------|
d-7-7-7-7-7-7-7-7-14-14-14-14-14-14-14-14-9-9-9-9-9-9-9-9-|
a-5-5-5-5-5-5-5-5-12-12-12-12-12-12-12-12-7-7-7-7-7-7-7-7-|
d---------------------------------------------------------|

e----------------------------------------|
b----------------------------------------|
g----------------------------------------|
d-11-11-11-11-11-11-11-7-7-7-7-7-7-7-7-7-|
a-9--9--9--9--9--9--9--5-5-5-5-5-5-5-5-5-|
d----------------------------------------|

#5 (01:01-01:44) chorus
e-----------------------------------------------------------|
b-----------------------------------------------------------|
g-----------------------------------------------------------|
d-12-12-12-12-12-7-7-7-7-7-7-7-12-12-12-12-12-7-7-7-7-7-7-7-|
a-12-12-12-12-12-7-7-7-7-7-7-7-12-12-12-12-12-7-7-7-7-7-7-7-|
d-12-12-12-12-12-7-7-7-7-7-7-7-12-12-12-12-12-7-7-7-7-7-7-7-|

e-------------------------------------------------------------|
b-------------------------------------------------------------|
g-------------------------------------------------------------|
d-12-12-12-12-12-7-7-6-6-6-4-4-4-4-4-4-4-14-14-14-16-16-14-14-|
a-12-12-12-12-12-7-7-6-6-6-4-4-4-4-4-4-4-14-14-14-16-16-14-14-|
d-12-12-12-12-12-7-7-6-6-6-4-4-4-4-4-4-4-14-14-14-16-16-14-14-|

e-----------------------------------------------------------------------|
b-----------------------------------------------------------------------|
g-----------------------------------------------------------------------|
d-7-7-7-7-7-2-2-2-2-2-2-4-4-4-4-4-4-12-12-12-12-12-12-12-12-12-12-12-12-|
a-7-7-7-7-7-2-2-2-2-2-2-4-4-4-4-4-4-12-12-12-12-12-12-12-12-12-12-12-12-|
d-7-7-7-7-7-2-2-2-2-2-2-4-4-4-4-4-4-12-12-12-12-12-12-12-12-12-12-12-12-|

e-----------------------------------------------------------|
b-----------------------------------------------------------|
g-----------------------------------------------------------|
d-7-7-7-7-7-2-2-2-2-2-2-4-4-4-4-4-4-12-12-12-12-12-12-12-12-|
a-7-7-7-7-7-2-2-2-2-2-2-4-4-4-4-4-4-12-12-12-12-12-12-12-12-|
d-7-7-7-7-7-2-2-2-2-2-2-4-4-4-4-4-4-12-12-12-12-12-12-12-12-|

#6 (01:45-03:12) parts # 2-5 repeated

#7 (03:13-03:42) solo
*with the third and fourth 14th fret vibratos are the same. you don't do
two vibratos, but you do one and have to keep the string bent slightly to
get the right note. sounds confusing, but just listen to the song and you'll
get it
e---------------------------------------------------------------------------|
b---------------------------------------------------------------------------|
g---------------------------------------------------------------------------|
d---------------------------------------------------------------------------|
a7-7-9-9-7-7-4-4-4~-2-0-4-4~-4~-0-7-7-9-9-12-12-14-14-14~-14~-12-9-9-14~-12-|
d---------------------------------------------------------------------------|

e----------------------------------------------------------|
b----------------------------------------------------------|
g----------------------------------------------------------|
d-14~-12-11-12-11-14~-14~-12-11-12-11-12-16-16-16-12-12-12-|
a----------------------------------------------------------|
d----------------------------------------------------------|

e--------------------------------------------------------------------------|
b--------------------------------------------------------------------------|
g--------------------------------------------------------------------------|
d-11-11-11-12-12-11-11-9-9-6-6-6-6-6-9-9-4-4-4-4-7-7-7-9-11-11-11-11-11-11-|
a--------------------------------------------------------------------------|
d--------------------------------------------------------------------------|

#7 (03:43-04:26) parts #4-5 repeated

#8 (04:27-04:40) played twice
e-------------------------------------------------------------|
b-------------------------------------------------------------|
g-------------------------------------------------------------|
d-14-14-14-14-9-9-9-9-9-9-9-9-7-7-7-7-7-7-7-7-7-7-7-7-7-7-7-7-|
a-12-12-12-12-7-7-7-7-7-7-7-7-5-5-5-5-5-5-5-5-5-5-5-5-5-5-5-5-|
d-------------------------------------------------------------|

#9 (04:41-end)
e----------------------------------------------------------|
b----------------------------------------------------------|
g----------------------------------------------------------|
d--9-11-11----9-11-11----9-11-11---11-12-12-11-11-12-12-11-|
a-7----------7----------7----------------------------------|
d----------------------------------------------------------|

e------------------------------------------------------------------|
b------------------------------------------------------------------|
g------------------------------------------------------------------|
d--9-11-11----9-11-11----9-11-11---11-12-12-11-11-12-12-11----9/11-|
a-7----------7----------7------------------------------------7-----|
d------------------------------------------------------------------|
Related for My Foot tab