Song name
# A B C D E F G H I J K L M N O P Q R S T U V W X Y Z

Pillows - One Life tab

One Life
This was Originally Tabbed by Nick Dobromilsky


Intro
	Gsus4    G
E |------3-------3------|
B |----3---3---3---3----|
G |--5-------4-------3--|
D |---------------------|
A |---------------------|
E |---------------------|

    Gsus4   G       Gsus4   G

Verse 1 
    C    G    Am   Em    F    G    C    G
E |-0-0--3-3--0-0--0-0---1-1--3-3--0-0--3-3--|
B |-1-1--3-3--1-1--0-0---1-1--3-3--1-1--0-0--|
G |-0-0--0-0--2-2--0-0---2-2--0-0--0-0--0-0--|
D |-2-2--0-0--2-2--2-2---3-3--0-0--2-2--0-0--|
A |-3-3--2-2-------2-2---3-3--2-2--3-3--2-2--|
E |------3-3-------------1-1--3-3-------3-3--|

    C    G    Am   Em    F    G    C 
E |-0-0--3-3--0-0--0-0---1-1--3-3--0-0-0-0--|
B |-1-1--3-3--1-1--0-0---1-1--0-0--1-1-1-1--|
G |-0-0--0-0--2-2--0-0---2-2--0-0--0-0-0-0--|
D |-2-2--0-0--2-2--2-2---3-3--0-0--2-2-2-2--|
A |-3-3--2-2-------2-2---3-3--2-2--3-3-3-3--|
E |------3-3-------------1-1--3-3-----------|

Verse 2
    Dm   Em   C    C7   F    G    Am    A7
E |-1-1--0-0--0-0--0-0--1-1--3-3--0-0--0-0--|
B |-3-3--0-0--1-1--1-1--1-1--3-3--1-1--2-2--|
G |-2-2--0-0--0-0--3-3--2-2--0-0--2-2--0-0--|
D |------2-2--2-2--2-2--3-3--0-0--2-2--2-2--|
A |------2-2--3-3--3-3--3-3--2-2--0-0-------|
E |---------------------1-1--3-3------------|

    Dm   Em   C    C7   Fm7  G#   G
E |-1-1--0-0--0-0--0-0--1-1--4-4--3-3--|
B |-3-3--0-0--1-1--1-1--1-1--4-4--3-3--|
G |-2-2--0-0--0-0--3-3--2-2--5-5--4-4--|
D |------2-2--2-2--2-2--1-1--6-6--5-5--|
A |------2-2--3-3--3-3--3-2--6-6--5-5--|
E |---------------------1-1--4-4--3-3--|

    Gsus4   G       Gsus4   G

Chorus  
F       G       C       C7     
F       G       Am      A7
F       G       C       C7
F       Fm7     C       G
Chorus 2
F       G       C       C7     
F       G       Am      A7
F       G       C       C7
F       Fm7     C       A7 
Tap to rate this tab
# A B C D E F G H I J K L M N O P Q R S T U V W X Y Z