Song name
# A B C D E F G H I J K L M N O P Q R S T U V W X Y Z

Pillows - Thunder Whales Picnic tab

Im not sure exactly what chord it is but im stuck between these two
I like the soudn in 546 better but its up to you.


e|-------------------------------------------|
b|-------------------------------------------|
g|-------------------------------------------|
d|--6--6-------------------------------------|
a|--4--7-------------------------------------|
E|--5--5-------------------------------------|

e|------------------------------------------|
b|------------------------------------------|
g|------------------------------------------|
d|-----6----6-----------2-21----2-21--------|
a|--44-4-44-4--Etc.--22-2-22-22-2-22--------|Etc.
E|--55---55----------00------00-------------|


e|---------------------------------------------|
b|---------------------------------------------|
g|---------------------------------------------|
d|-9-9-9-9-99--6-6-6-6-66--9-9-9-9-99-----7----|
a|-6-6-6-6-66--4-4-4-4-46--6-6-6-6-66--7---7---|
E|-7-7-7-7-77--5-5-5-5-55--7-7-7-7-77--8-----8-|

guitar 2
e|-----------------------------------------|
b|--99999--9999---999999-7-9---------------|X2
g|------99999--99999-----------------------|
d|-----------------------------------------|
a|-----------------------------------------|
E|-----------------------------------------|


Chorus, use either an octive pedla or 2 guitar which sounds better
e|------------------------------------------------------------|
b|----10p9-------------12/9-999-----10p9----------------------|
g|---------9p8--9/11-9-------------------9p8--9/11-9-11-99\---|
d|--9---------------------------9-----------------------------|
a|------------------------------------------------------------|
E|------------------------------------------------------------|

e|------------------------------------------------------------|
b|----10p9-------------12/9-999----10p9-----------------------|
g|---------9p8--9/11-9------------------9p8--9/11-9\----------|
d|--9---------------------------9-----------------------------|
a|------------------------------------------------------------|
E|------------------------------------------------------------|

guitar 2 Chours (octave)
e|-----------------------------------------------------|
b|-----------------------------------------------------|
g|-----------------------------------------------------|
d|----7p6-------------------------7p6------------------|
a|-------7p6-7/9-7-9/-11-11-11-------7p6-7/9-7-9-77\---|
E|-7----------------------------7----------------------|

e|-----------------------------------------------------|
b|-----------------------------------------------------|
g|-----------------------------------------------------|
d|----7p6-------------------------7p6------------------|
a|-------7p6-7/9-7-9/-11-11-11-------7p6-7/9-7\--------|
E|-7----------------------------7----------------------|

 Tremelo pick during end
e|-----------------------------------------------------|
b|---16----------17-------19---------------------------|
g|-----------------------------------------------------|
d|-----------------------------------------------------|
a|-----------------------------------------------------|
E|-----------------------------------------------------|
Tap to rate this tab
# A B C D E F G H I J K L M N O P Q R S T U V W X Y Z