Song name
# A B C D E F G H I J K L M N O P Q R S T U V W X Y Z

Pilot - Magic tab

-------------
Magic ~ Pilot
-------------
Tabbed By: RussCool
(I know, pretty lame name)


INTRO

E|------------------------|------------------------|
B|-------8-10-8-12-12-----|---12-10-8-10--12-8-----|
G|---7-9------------------|------------------------|
D|------------------------|------------------------|
A|------------------------|------------------------|
E|------------------------|------------------------|

E|---12---12-------------------|------------------------------------|
B|-------------12-10-8-8-------|---------8--10--8--12-10-8-10-8-----|
G|-----------------------------|---7--9-----------------------------|
D|-----------------------------|------------------------------------|
A|-----------------------------|------------------------------------|
E|-----------------------------|------------------------------------|

E|-----------|
B|---8-------|
G|-----------|
D|-----------|
A|-----------|
E|-----------|


Chorus 1
(Piano)


VERSE 1

E|----------------------|------------------|
B|----------------------|------------------|
G|----------------------|-----------9------|
D|---5-5-5-5-5-5-5-5----|---9-9-9-9-9------|
A|---5-5-5-5-5-5-5-5----|---9-9-9-9-7------|
E|---3-3-3-3-3-3-3-3----|---7-7-7-7--------|

E|----------------------|----------------------|
B|----------------------|----------------------|
G|-----------5-5-5-5----|---7-7-7-7-7-7-7-7----|
D|---7-7-7-7-5-5-5-5----|---7-7-7-7-7-7-7-7----|
A|---7-7-7-7-3-3-3-3----|---5-5-5-5-5-5-5-5----|
E|---5-5-5-5------------|----------------------|

E|----------------------|------------------|
B|----------------------|------------------|
G|----------------------|-----------9------|
D|---5-5-5-5-5-5-5-5----|---9-9-9-9-9------|
A|---5-5-5-5-5-5-5-5----|---9-9-9-9-7------|
E|---3-3-3-3-3-3-3-3----|---7-7-7-7--------|

E|----------------------|----------------------|
B|----------------------|----------------------|
G|-----------5-5-5-5----|---7-7-7-7-7-7-7-7----|
D|---7-7-7-7-5-5-5-5----|---7-7-7-7-7-7-7-7----|
A|---7-7-7-7-3-3-3-3----|---5-5-5-5-5-5-5-5----|
E|---5-5-5-5------------|----------------------|

E|-----------|
B|-----------|
G|-----------|
D|---3-------|
A|---3-------|
E|---1-------|


CHORUS 2

E|----------------------|----------------------|----------------------|
B|----------------------|----------------------|----------------------|
G|----------------------|----------------------|----------------------|
D|---5-5-5-5-5-5-5-5----|---9-9-9-9-9-9-9-9----|---7-7-7-7-7-7-7-7----|
A|---5-5-5-5-5-5-5-5----|---9-9-9-9-9-9-9-9----|---7-7-7-7-7-7-7-7----|
E|---3-3-3-3-3-3-3-3----|---7-7-7-7-7-7-7-7----|---5-5-5-5-5-5-5-5----|

E|----------------------|
B|----------------------|
G|---7-7-7-7-7-7-7-7----|
D|---7-7-7-7-7-7-7-7----|
A|---5-5-5-5-5-5-5-5----|
E|----------------------|

E|----------------------|----------------------|----------------------|
B|----------------------|----------------------|----------------------|
G|----------------------|----------------------|----------------------|
D|---5-5-5-5-5-5-5-5----|---9-9-9-9-9-9-9-9----|---7-7-7-7-7-7-7-7----|
A|---5-5-5-5-5-5-5-5----|---9-9-9-9-9-9-9-9----|---7-7-7-7-7-7-7-7----|
E|---3-3-3-3-3-3-3-3----|---7-7-7-7-7-7-7-7----|---5-5-5-5-5-5-5-5----|

E|----------------------|----------------------|--------------|
B|----------------------|----------------------|--------------|
G|---7-7-7-7-7-7-7-7----|---5-5-5-5-5-5-5-5----|--------------|
D|---7-7-7-7-7-7-7-7----|---5-5-5-5-5-5-5-5----|---5--3-------|
A|---5-5-5-5-5-5-5-5----|---3-3-3-3-3-3-3-3----|---5--3-------|
E|----------------------|----------------------|---3--1-------|


VERSE 2
(Same as VERSE 1)


CHORUS 3
(Same as CHORUS 2)


SOLO
( ? )


CHORUS 4
(Same as CHORUS 2 & 3)

Tap to rate this tab
 
# A B C D E F G H I J K L M N O P Q R S T U V W X Y Z