Song name
# A B C D E F G H I J K L M N O P Q R S T U V W X Y Z

Pink Anderson - She Knows How To Stretch It tab

                                    She Know How To Stretch It      


                                                                                   Pink Anderson
Here's the link to the YouTube video: http://www.youtube.com/watch?v=mXdkUahBoSI. 
The parenthetical notes are not played on the guitar but were required in order 
to place lyrics on those beats. Pink is tuned down a full step.

Regards to all y'all pickers - J. Robson



                   Know  a   gal      name's             Liz  a      Jane        
                   She   can stretcha dol       lar      She  makeit last        
                   nice      lookin'  gal,      she's    not  so     big.  She   
     Q     Q       E     E   Q        E      E  Q        Q    Q      Q     Q     
D||-------------|-------------------------------------|-------------------------|
A||-------------|-------(2)--2--------1s--------2-----|--2----1s-----2----------|
F||-------------|------------2---------------2--------|--2----1s-----2----------|
C||-------------|------------2--------1s--------2-----|--2----1s-----2----------|
G||-------------|--0------------------0---------------|--0----------------------|
D||--2s----4----|-------------------------------------|-------------------/4----|

  She   can  stretch dol   lar from    Texas  to      Maine  She   
  I     couldbe      frown ing         She'll make it pass         
  goes       bare    foot  ed  and     wears  a       wig    she   
  E     E    Q       E     E   Q       Q      E    E  Q      Q     
------------------------------------|-----------------------------|
-------(2)---2-------1s--------2----|--2------1s------2-----------|
-------------2-------------2--------|--2-----------2--------------|
-------------2-------1s--------2----|--2------1s------2-----/2----|
--0------------------0--------------|--0------0-------------------|
------------------------------------|-----------------------------|

  knows how  to  stretch it.                            She     knows how  to  stretch it       
  knows                                                 She     knows                           
  Q     E    E   E       E   Q       E  E  E   E  Q     Q       Q     E    E   E       E  Q     
--------2--------0h------2---2----|--2-----0h--2--2----------|---------------------------------|
--------1---(1)--0-------1---1----|-----1--0---1--1----------|--------2--------1s---------2----|
--------2--------0h------2---2----|--2-----0h--2--2----------|--------2---(2)----------2-------|
--------0-------------------------|--0-----------------------|--------2--------1s---------2----|
----------------------------------|--------------------------|--0--------------0---------------|
--2-------------------------------|--------------------/4----|---------------------------------|

                   She       knows how  to  stretch    it      knows    how to make it    
                   She       knows how  to  stretch    it.     knows    how to make it    
  Q    E   E  Q    E   E     Q     E    E   E       E  Q       E     E  E   E  Q    Q     
--------------------------|--------0------------------------|--0-------------------------|
--2----1s-----2-----------|------------(0)----------3-------|--------1-------------------|
--2--------2--------------|---------------------------------|-----------2p--0------------|
--2----1s-----2-----------|--------2-------------------2----|-----------0------2----0----|
--0----0------------------|---------------------------------|----------------------------|
-------------------2s--1--|--0--------------0---------------|--2---------------2----0----|


  last                                                      
  last                                                      
             |--3--|  |---3--|                              
  Q     Q    E  E  E  E   E  E     Q    E   E  E  E  Q      
-------------5--4---------------|--------------5--0-------||
--2s----4----------0------------|-------1s--2-------------||
--------------------------------|-------------------------||
--2s----4-------------1p--0-----|-------1s--2-------------||
-----------------------------4--|--0-----------0----------||
--------------------------------|--------------------4----||




Tap to rate this tab
 
# A B C D E F G H I J K L M N O P Q R S T U V W X Y Z