Song name
# A B C D E F G H I J K L M N O P Q R S T U V W X Y Z

Pink Floyd - Interstellar Overdrive tab

                   *Interstellar Overdrive (Syd Barrett)*
                       The Piper At The Gates Of Dawn

intro:
|------------------------------------------------------------|
|------------------------------------------------------------|
|------------------------------------------------------------|
|------------------------------------------------------------|
|-14\----------------2---------------------------------------|
|-----0--0-0-0-0-0-0---0--0-0-0-0-0--0-0-0-0-0-0---0-0-0-0-0-|

|-------------------------------------------0-|
|-------------------------------------------0-|
|-------------------------------------------X-|
|-------------------------------------------2-|
|-2-2--1-2-1--0-0----0----------------------2-|
|------------------4---4--3---3-3-3-3--2-2--0-|

|-------------------------------------------0-|
|-------------------------------------------0-|
|-------------------------------------------X-|
|-------------------------------------------2-|
|-2-2--1-2-1--0-0----0----------------------2-|
|------------------4---4--3---3-3-3-3--2-2--0-|

|------------------------------------------------------------|
|-12-12--11-12-11--10-10--9-10-9-8--8-8-8-8-8-8/20-20--7-7-5-|
|-11-11--10-11-10--9--9---8-9--8-7--7-7-7-7-7-7/19-19--6-6-4-|
|-9--9---8--9--8---7--7---6-7--6-5--5-5-5-5-5-5/17-17--4-4-2-|
|------------------------------------------------------------|
|------------------------------------------------------------|

|------------------------------------------------------------|
|-12-12--11-12-11--10-10--9-10-9-8--8-8-8-8-8-8/20-20--7-7-5-|
|-11-11--10-11-10--9--9---8-9--8-7--7-7-7-7-7-7/19-19--6-6-4-|
|-9--9---8--9--8---7--7---6-7--6-5--5-5-5-5-5-5/17-17--4-4-2-|
|------------------------------------------------------------|
|------------------------------------------------------------|

|-----------------------------------------------|
|-----------------------------------------------|
|-----------------------------------------------|
|-----------------------------------------------|
|-----------------------------------------------|
|-0--7-6-5-4-0--7-6-5-4-0--7-6-5-4-0--7-6-5-4-0-|

After about 8 minutes of out of tuning keyboard and guitar, here is
the Outro:
(Slower)
|------------------------------------------------------------|
|-12-12--11-12-11--10-10--9-10-9-8--8-8-8-8-8-8/20-20--7-7-5-|
|-11-11--10-11-10--9--9---8-9--8-7--7-7-7-7-7-7/19-19--6-6-4-|
|-9--9---8--9--8---7--7---6-7--6-5--5-5-5-5-5-5/17-17--4-4-2-|
|------------------------------------------------------------|
|------------------------------------------------------------|

|------------------------------------------------------------|
|-12-12--11-12-11--10-10--9-10-9-8--8-8-8-8-8-8/20-20--7-7-5-|
|-11-11--10-11-10--9--9---8-9--8-7--7-7-7-7-7-7/19-19--6-6-4-|
|-9--9---8--9--8---7--7---6-7--6-5--5-5-5-5-5-5/17-17--4-4-2-|
|------------------------------------------------------------|
|------------------------------------------------------------|
Tap to rate this tab
# A B C D E F G H I J K L M N O P Q R S T U V W X Y Z