Guitaretab - guitar tabs
Song name
# A B C D E F G H I J K L M N O P Q R S T U V W X Y Z

Pink Floyd - Poles Apart tab

  
                                 Poles Apart
                                 Pink Floyd
                              The Division Bell



D|------------0-----------------0--------|
A|------0-----------0-----0-----------0--|
G|---7-----------------6-----------------|
D|---------5-----5-----------5-----5-----|
A|---------------------------------------|
D|---------------------------------------|

D|------------0-----------------0--------|
A|------0-----------0-----0-----------0--|
G|---4-----------------6-----------------|
D|---------5-----5-----------5-----5-----|
A|---------------------------------------|
D|---------------------------------------|

D|------------0-----------------0--------|
A|------0-----------0-----0-----------0--|
G|---7-----------------6-----------------|
D|---------5-----5-----------5-----5-----|
A|---------------------------------------|
D|---------------------------------------|


D|------------0-----------------0----------------------|
A|------0-----------0-----0-----------0----------------|
G|---4-----------------6-------------------------------|
D|---------5-----5-----------5-----5-------------------| repeat=
A|----------------------------------------|    3    ---|
D|----------------------------------------|  times  ---|
_____________________________________________________|


D|------------0-----------------0--------|
A|------0-----------0-----0-----------0--|
G|---4-----------------2-----0-----0-----|
D|---------5-----5-----------------------|
A|---------------------------------------|
D|---------------------------------------|

figure 1
D|-----------------------------------------|
A|------------------0----------------------|
G|------------0-----------------0----------|
D|------4--------4--------4-------------4--|
A|---------0-----------------0-------------|
D|---0-----------------0-------------------|

D|-----------------------------------------|
A|------------------0----------------------|
G|------------0-----------------0----------|
D|------4--------4--------4-------------4--|
A|---------0-----------------0-------------|
D|---0-----------------0-------------------|

D|-----------------------------------------|
A|------------------0----------------------|
G|------------0-----------------0----------|
D|------4--------4--------4-------------4--|
A|---------0-----------------0-------------|
D|---0-----------------0-------------------|

D|-----------------------------------------|
A|------------------0----------------------|
G|------------0-----------------0----------|
D|------4--------4--------4-------------4--|
A|---------0-----------------0-------------|
D|---0-----------------0-------------------|

figure 2
D|------------------------------------|
A|------------------0-----------------|
G|------------0-----------------0-----|
D|------0--------0--------0--------0--|
A|---------5-----------------5--------|
D|---5-----------------5--------------|

D|------------------------------------|
A|------------------0-----------------|
G|------------0-----------------0-----|
D|------0--------0--------0--------0--|
A|---------5-----------------5--------|
D|---5-----------------5--------------|

D|------------------------------------|
A|------------------0-----------------|
G|------------0-----------------0-----|
D|------0--------0--------0--------0--|
A|---------5-----------------5--------|
D|---5-----------------5--------------|

D|------------------------------------||
A|------------------0-----------------||
G|------------0-----------------0-----||
D|------0--------0--------0--------0--||
A|---------5-----------------5--------||
D|---5-----------------5--------------||

Sung with figures 1 and 2
====================
fig. 1
Did you know
it was all going to go
----------------------
fig. 2
so wrong for you?
----------------------
fig. 1
And did you see
it was all going to be
----------------------
fig. 2
so right for me?
====================

D|-------------------|-----------------------|-----------|
A|-------------------|-----------------------|-----0-----|
G|-------------------|-----------------------|-----------|
D|---2/4-- 2----0----|-----------------------|-----4-----|
A|-------------------|--2/4----2----0--------|-----------|
D|-------------------|-----------------------|-----------|
      Why  did   we      tell  you  then....       You

D|----------------------|-----------------------------|-----------------|
A|---0--0---------------|-----------------------------|--0--0----0------|
G|----------------------|----0------------0-----0-----|-----------------|
D|---5--4---2-----0-----|-----------------------------|--4--5----4------|
A|----------------------|--2h4-------2p0--2-----2--0--|-----------------|
D|----------------------|-----------------------------|-----------------|
     were  al-ways the     gold-en   boy        then,    And that you'd

D|--------------|------------------------------|
A|--------------|------------------------------|
G|--------------|------------------------------|
D|--------------|----0--0--0----0---------4----|
A|-----2--0-----|--2h4--4--2p0-----------------|
D|--------------|---------------5---------0----|




Guitar Solo:   
|---------------------------|
|---------------------------|
|--9b----Lpbr--L------7~----|
|---------------------------|
|---------------------------|
|---------------------------|

  
|-----------------------------|-----------------------------|
|-----------------------------|-----7----8p--7--------------|
|-----------------------------|-------------------9----7----|
|--<>9b----Lpbr--L------7~----|-----------------------------|
|-----------------------------|-----------------------------|
|-----------------------------|-----------------------------|

   
|------------------------------|--------------------------------------|
|------------------------------|-------7--Lb--Lpbr----Lp----5---------|
|--6---<>6---------------------|---------------------------------7----|
|------------9p-7h-9---5s-7----|--------------------------------------|
|------------------------------|--------------------------------------|
|------------------------------|--------------------------------------|

              
|-------------------------------|-------------------|-------------------|
|-------------------------------|-------------------|-------------------|
|--5~---------------------------|-------------------|-------------------|
|----------9p-7-9----9----7\----|-------------------|-------------------|
|-------------------------------|--5----------------|--L----------------|
|-------------------------------|-------------------|-------------------|

 
|--2~----------------|--L~---------------------------|
|--------------------|------------7h-10-x--10-x--10b-|
|--------------------|-------------------------------|
|--------------------|-------------------------------|
|--L~----------------|--L~---------------------------|
|--------------------|-------------------------------|

   
|-------------------------------|----------------------|
|---L~-------------Lbr---L--8-0-|----------------------|
|-------------------------------|--14b-----------------|
|-------------------------------|----------------------|
|-------------------------------|----------------------|
|-------------------------------|----------------------|

    
|--------------------------------------|-----------------------------------|
|----------------------------12b--12b--|--12~-----12--12br--12--12--(12)\--|
|-------14b----14b----14b--------------|-----------------------------------|
|--------------------------------------|-----------------------------------|
|--------------------------------------|-----------------------------------|
|--------------------------------------|-----------------------------------|

[ Tab from: http://www.guitaretab.com/p/pink-floyd/14709.html ]
|--------------------|-------------------------------|---------------------|
|--------------------|-----7----7----7----7br----L-5-|--7----L\------------|
|--14~---------------|-------------------------------|---------------------|
|--------------------|-------------------------------|---------------------|
|--------------------|-------------------------------|---------------------|
|--------------------|-------------------------------|---------------------|

   
|------------------------------|-------------------------------|
|-----------7h-10-x--10-x--10b-|---L~-------------Lbr---L--12--|
|------------------------------|-------------------------------|
|------------------------------|-------------------------------|
|------------------------------|-------------------------------|
|------------------------------|-------------------------------|

      
|--------------------------|--------------------------------------------|
|--12~------------12b---L--|--15----15----14----15b----15pb----15pbr----|
|--------------------------|--------------------------------------------|
|--------------------------|--------------------------------------------|
|--------------------------|--------------------------------------------|
|--------------------------|--------------------------------------------|

   
|--------------------------|----------------------|
|--12----------------------|----------------------|
|-----------------11-14----|--12~-----------------|
|--------------------------|----------------------|
|--------------------------|----------------------|
|--------------------------|----------------------|

        
|---------------------------------------------|----------------------|
|-------17b----17pb----17pb----18pbr------17--|---Lb-----------------|
|---------------------------------------------|----------------------|
|---------------------------------------------|----------------------|
|---------------------------------------------|----------------------|
|---------------------------------------------|----------------------|

   
|-------------------------|-----------------------------|
|-------------------------|--12~------------14br---Lbr--|
|----------------11s-14---|-----------------------------|
|-------------------------|-----------------------------|
|-------------------------|-----------------------------|
|-------------------------|-----------------------------|


|-------------------------|------------------------------------------------|
|---Lb----------------14b-|---Lpb----14pb----14pb---14pbr----L---Lp-12p-10-|
|-------------------------|------------------------------------------------|
|-------------------------|------------------------------------------------|
|-------------------------|------------------------------------------------|
|-------------------------|------------------------------------------------|


  
|----------------------------------------------|------------------------|
|--12------12p-10p-8h-12----10----10p-8p-7h-8h-|--10---------L\---------|
|----------------------------------------------|------------------------|
|----------------------------------------------|------------------------|
|----------------------------------------------|------------------------|
|----------------------------------------------|------------------------|


|---------------------------------------------|----------------------------|
|------17br-----Lbr-----Lb-----Lpb----17pb----|--17-------------17p-16p-15-|
|---------------------------------------------|----------------------------|
|---------------------------------------------|----------------------------|
|---------------------------------------------|----------------------------|
|---------------------------------------------|----------------------------|


|---------------------------------------------------------|
|--17br--17b---Lpbr---L-15h-17-15h-17p-15-----------------|
|-----------------------------------------16s-14--11---Ls-|
|---------------------------------------------------------|
|---------------------------------------------------------|
|---------------------------------------------------------|


 
|-------------------------|--------------------------|
|--------------------15---|--15----------------14-15-|
|--16-----------16--------|--------------------------|
|-------------------------|--------------------------|
|-------------------------|--------------------------|
|-------------------------|--------------------------|


|---------------------------------------------------|----------------------|
|--15b--Lpbr---L----15--14--15--14------14----------|----------------------|
|-----------------------------------16------16--14--|--16--------16---14---|
|---------------------------------------------------|----------------------|
|---------------------------------------------------|----------------------|
|---------------------------------------------------|----------------------|

   
-------------------------------|-------------------------------------------|
-------------------------------|-------------------------------------------|
--11h-14p-12p-11---------------|-----------7---------9-----------11--------|
-------------------------------|-----7--L------7--L------(7)--L-------(7)--|
-------------------------------|-------------------------------------------|
-------------------------------|-------------------------------------------|

 
|---------------------------|--------------------------------|
|---------------------------|--------------------------------|
|-----9b---9b---9b---9---7--|--9---9-Lb--9g9--7--------------|
|---------------------------|----------------------7----7----|
|---------------------------|--------------------------------|
|---------------------------|--------------------------------|

 
|---------------------|-----------------------------|
|---------------------|-----------------------------|
|---------------------|-----9b--------9-----7-------|
|--9--------L---------|------------7-----9----------|
|---------------------|-----------------------------|
|---------------------|-----------------------------|

  
|---------------------------------|--------------------------------|
|--10----10--8--7--10----7--8--7--|--5----7----8----7----8----5----|
|---------------------------------|--------------------------------|
|---------------------------------|--------------------------------|
|---------------------------------|--------------------------------|
|---------------------------------|--------------------------------|


 
|--------------------|----------------------------------------|
|--------------------|-------5b----5pb----5pb----6pbr------5--|
|--------------------|----------------------------------------|
|--/7----------------|----------------------------------------|
|--------------------|----------------------------------------|
|--------------------|----------------------------------------|


     
|--------------------|---------------------------||
|--7~----------------|--L--------------7----7----||
|--------------------|---------------------------||
|--------------------|---------------------------||
|--------------------|---------------------------||
|--------------------|---------------------------||



Tablature Legend
----------------
L - tied note
x - dead note
g - grace note
(n) - ghost note
> - accentuded note
NH - natural harmonic
AH - artificial harmonic
TH - tapped harmonic
SH - semi harmonic
PH - pitch harmonic
h - hammer on
p - pull off
b - bend
br - bendRelease
pb - preBend
pbr - preBendRelease
brb - bendReleaseBend
\n/ - tremolo bar dip
\n - tremolo bar dive
-/n - tremolo bar Release up
/n\ - tremolo bar inverted dip
/n - tremolo bar return
-\n - tremolo bar Release down
S - shift slide
s - legato slide
/ -  slide into from below or out of upwards
\ -  slide into from above or out of downwards
~ - vibrato
W - wide vibrato
tr - trill
TP - tremolo picking
T - tapping
S - slap
P - pop
< - fade in
^ - brush up
v - brush down
Related for Poles Apart tab
Poles Apart chords by Pink Floyd