Song name
# A B C D E F G H I J K L M N O P Q R S T U V W X Y Z

Pink Floyd - Set The Controls tab

Pink Floyd "Set The Controls For The Heart Of The Sun" (transcribed by K{wi{)


[Intro; repeat few times]
---------------------------------------
---------------------------------------
2---2---2---3---2----2---0---0---0---2-
---------------------------------------
---------------------------------------


Little by little the night turns around
--------------------------------------- ---------------------------------------
--------------------------------------- ---------------------------------------
2---2---2---3---2----2---0---0---0---2- 2---2---2---3---2----2---0---0---0---2-
--------------------------------------- ---------------------------------------
--------------------------------------- ---------------------------------------


Counting the leaves which tremble at dawn
--------------------------------------- ---------------------------------------
--------------------------------------- ---------------------------------------
2---2---2---3---2----2---0---0---0---2- 2---2---2---3---2----2---0---0---0---2-
--------------------------------------- ---------------------------------------
--------------------------------------- ---------------------------------------


Lotus's lean on each other in yearning
--------------------------------------- ---------------------------------------
--------------------------------------- ---------------------------------------
2---2---2---3---2----2---0---0---0---2- 2---2---2---3---2----2---0---0---0---2-
--------------------------------------- ---------------------------------------
--------------------------------------- ---------------------------------------


Under the hills the swallow is resting
--------------------------------------- ---------------------------------------
--------------------------------------- ---------------------------------------
2---2---2---3---2----2---0---0---0---2- 2---2---2---3---2----2---0---0---0---2-
--------------------------------------- ---------------------------------------
--------------------------------------- ---------------------------------------


Aaaaaah......                           Aaaaaaah...
--------------------------------------- ---------------------------------------
------------2---0----0----------------- ------------2---0----0-----------------
2---2---2----------------3---3---3---2- 2---2---2----------------3---3---3---2-
--------------------------------------- ---------------------------------------
--------------------------------------- ---------------------------------------


Set the controls for the heart of the sun
--------------------------------------- ---------------------------------------
--------------------------------------- ---------------------------------------
2---2---2---3---2----2---0---0---0---2- 2---2---2---3---2----2---0---0---0---2-
--------------------------------------- ---------------------------------------
--------------------------------------- ---------------------------------------


2.	Over the mountain watching the watcher
	Breaking the darkness, waking the grapewine
	Morning to love is born in the shadow
	Love is the shadow that ripens the vine

	Set the controls for the heart of the sun


3.	Witness the man who raves at the wall
	Making the shape of his questions to heaven
	Whether the sun will fall in the evening?
	Will he remember the lesson of giving?

	Set the controls for the heart of the sun
--- cut here ---

--
Aaro Koskinen, akoskine@cc.helsinki.fi
"All you touch and all you see is all your life will ever be" (Pink Floyd)
Tap to rate this tab
# A B C D E F G H I J K L M N O P Q R S T U V W X Y Z