Song name
# A B C D E F G H I J K L M N O P Q R S T U V W X Y Z

Pink Floyd - Biding My Time Solo Arrangment tab

Help us improve GuitareTab! Take a short survey!
Biding My Time
Pink Floyd
Relics

Tuning - Standard



INTRO:
E :------------------------|0-----------------------|
B :0---------0-------------|------4-----3-----2-----|
G :0---0-----0-----0-----0-|----0-----0-----0-------|
D :2---------2-------------|------------------------|
A :------------------------|------------------0---2-|
E :------0-----------0-----|0-----2-----3-----------|

E :------0-----------------|0-----------------------|
B :0---------0-------------|------4-----3-----2-----|
G :----0-----------0-----0-|----0-----0-----0-------|
D :------------------2-----|------------------------|
A :------------------------|------------------0---2-|
E :0-----0-----------------|0-----2-----3-----------|

E :------------------------|------------------------|
B :0---------------0-------|------------------------|
G :----0-------------0-----|------2---0-------------|
D :----------2-------------|------1---1-----4-------|
A :------0-2---------------|----2-----------2-------|
E :0-----------0-------0-1-|2-----2---2-----2-------|

E :------------------------|------------------------|
B :5-----5-----4--5------4-|5---5-4---5-----5-------|
G :7-----7-----6--7------6-|7---7-6---7-------------|
D :6-----6-----5--6------5-|6---6-5---6-----------5-|
A :7-----7-----6--7------6-|7---7-6---7-------7-----|
E :------------------------|------------------------|

Verse 1:
E :------------------------|0-----------------------|
B :0---------0-------------|------4-----3-----2-----|
G :0---0-----0-----0-----0-|----0-----0-----0-------|
D :----------2-------------|------------------------|
A :------------------------|------------------0---2-|
E :0-----0-----------0-----|0-----2-----3-----------|
   wasting my time...
E :----------0-------------|0-----------------------|
B :0-----------0-----------|------4-----3-----2-----|
G :----0-----------0-------|----0-----0-----0-------|
D :----------------------2-|------------------------|
A :------0-2---------0-2---|------------------0---2-|
E :0-----------0-----------|0-----2-----3-----------|
   resting my mind...
E :----------0-------------|------------------------|
B :0-----------0-----------|------------------------|
G :----0-----------0-------|------2---0-------------|
D :------------------------|------1---1-----4-------|
A :------0-2---------2-----|----2-----------2-------|
E :0-----------0-------0-1-|2-----2---2-----2-------|
  and I'll never pine for the sad days and the bad days
E :------------------------|------------------------|
B :5-----5-----4--5------4-|5---5-4---5-----5-------|
G :7-----7-----6--7------6-|7---7-6---7-------------|
D :6-----6-----5--6------5-|6---6-5---6-----------5-|
A :7-----7-----6--7------6-|7---7-6---7-------7-----|
E :------------------------|------------------------|
   when we was working from 9  to 5.
Verse 2:
E :------------------------|0-----------------------|
B :0---------0-------------|------4-----3-----2-----|
G :0---0-----0-----0-----0-|----0-----0-----0-------|
D :----------2-------------|------------------------|
A :------------------------|------------------0---2-|
E :0-----0-----------0-----|0-----2-----3-----------|
   and if you don't mind...
E :----------0-------------|0-----------------------|
B :0-----------0-----------|------4-----3-----2-----|
G :----0-----------0-------|----0-----0-----0-------|
D :----------------------2-|------------------------|
A :------0-2---------0-2---|------------------0---2-|
E :0-----------0-----------|0-----2-----3-----------|
   I'll spend my time...
E :----------0-------------|------------------------|
B :0-----------0-----------|------------------------|
G :----0-----------0-------|------2---0-------------|
D :------------------------|------1---1-----4-------|
A :------0-2---------2-----|----2-----------2-------|
E :0-----------0-------0-1-|2-----2---2-----2-------|
   here by the fireside in the warm light of the love in her
E :------------------------|------------------------|
B :8-8-8-8-8-8-8-8-8-8-8-8-|3---3-3---3-3---3-3---3-|
G :7-7-7-7-7-7-7-7-7-7-7-7-|2---2-2---2-2---2-2---2-|
D :6-6-6-6-6-6-6-6-6-6-6-6-|1---1-1---1-1---1-1---1-|
A :7-7-7-7-7-7-7-7-7-7-7-7-|2---2-2---2-2---2-2---2-|
E :------------------------|------------------------|
   eyes!
Bridge:
E :----------0-------------|0-----------------------|
B :0-----------0-----------|--0---4---4-3---3-2-----|
G :----0-----------0-----0-|----0---0-----0-----0---|
D :------------------------|------------------------|
A :------0-2---------0-2---|------------------0---2-|
E :0-----------0-----------|0-----2-----3-----------|

E :------------0-----------|0-----------------------|
B :0---------------0-------|--0---4---4-3---3-2-----|
G :--0-------0-------0-----|----0---0-----0-----0---|
D :--------2-----------2---|------------------------|
A :----0-2---------------2-|------------------0---2-|
E :0-----------------------|0-----2-----3-----------|

E :------------0-----------|------------------------|
B :0---------------0-------|------------------------|
G :----0-----0-------0-----|------2---0-------------|
D :------------------------|------1---1-----4-------|
A :------0-2---------------|----2-----------2-------|
E :0-------------------0-1-|2-----2---2-----2-------|

E :------------------------|------------------------|
B :5-----5-----4--5------4-|5---5-4---5-----5-------|
G :7-----7-----6--7------6-|7---7-6---7-------------|
D :6-----6-----5--6------5-|6---6-5---6-----------5-|
A :7-----7-----6--7------6-|7---7-6---7-------7-----|
E :------------------------|------------------------|

E :------------------------|0-----------------------|
B :0---------0-----------0-|--0---4-----3---3-2-----|
G :0---0-----------0-------|----0-----0---0---------|
D :------------------------|------------------------|
A :------0---2-------------|------------------0---2-|
E :0---------0-------0-----|0-----2-----3-----------|
   and if you don't mind...
E :------0-----------------|0-----------------------|
B :0---------0-------------|--0---4-----3---3-2-----|
G :----0-----------0-----0-|----0-----0---0---------|
D :------------------------|------------------------|
A :------------------0-2---|------------------0---2-|
E :0-----0-----------------|0-----2-----3-----------|
   I'll spend my time...
E :------------0-----------|------------------------|
B :0---------------0-------|------------------------|
G :----0-----0-------0-----|------2---0-------------|
D :------------------------|------1---1-----4-------|
A :------0-2---------------|----2-----------2-------|
E :0-------------------0-1-|2-----2---2-----2-------|
   here by the fireside in the warm light of the love in her
E :------------------------|------------------------|
B :------------3-----3-----|4---5-6---5-------------|
G :1-----1-----2-----2-----|6---7-8---7-------------|
D :2-----2-----1-----1-----|5---6-7---6-------------|
A :2-----2-----2-----2-----|6---7-8---7-------------|
E :0-----0-----------------|------------0-----------|
   eyes!



   Intro   : verse 1 with a bit less notes
   link  1 : E7 with a few D#7
   Verse 1 : verse 1 (No?! Yes it is Sir!)  =)
   link  2 : E7 with a few D#7 (u see link 1? exactly the same thing...)
   Verse 2 : Verse 1 (Again? Roger must have wrote it)
   link  3 : E7#9 & B7#9 (U know, the blues ones!)
   Bridge  : Verse one but with a bit more notes
   link  4 : E7 with a few D#7, exactly as Link 1
   Verse 3 : Good old verse 1 is striking back, but this time
             with verse 2's lyrics. Hi Roger, not too busy?
   Coda    : E7, B7#9...  D#7, E7, F7, E7... (TaDa!)

something not on the tab: Slide from D#7 to E7 on links.
Link 3, bridge & Coda are my own ideas, as they replace solo parts,
being not able to play them alone ('cuz i'm alone, how cruel is life!
but she will be mine, oh yes, she will be mine!)


LYRICS:
v1: wasting my time...
    resting my mind...                              the typical Rog. line \
    and I'll never pine                                                   |
    for the sad days and the bad days when we was working from 9  to 5. <-/

v2: and if you don't mind...                    <=v3 too
    I'll spend my time...
    here by the fire side
    in the warm light of the love in her eyes!
Related for Biding My Time Solo Arrangment tab