Song name
# A B C D E F G H I J K L M N O P Q R S T U V W X Y Z

Pink - Funhouse tab

This Song is mostly played by the bass. These are the little things for the guitar:
Standard Tuning

For the intro and chorus:

E|---------------------|
B|---------------------|
G|-----9999-5-5-5-7777-|
D|-2-2-9999-5-5-5-7777-|
A|-2-2-7777-3-3-3-5555-|
E|-0-0-----------------|
   ^ ^ ^v^v ^ ^ ^ ^v^v  
Then for the Bridge: 
   ^ ^ ^ ^ ^ ^ ^ ^ ^ ^ ^ ^ ^ ^ ^ ^
E|----------------------------------|
B|----------------------------------|
G|---------4-4-4-4---------5-5-5-5--|
D|-2-2-2-2-4-4-4-4-5-5-5-5-5-5-5-5--|
A|-2-2-2-2-2-2-2-2-5-5-5-5-3-3-3-3--|
E|-0-0-0-0---------3-3-3-3----------|
---PM-PM-PM-PM-PM-PM-PM-PM-PM-PM-PM-|

And for the run down, it's a bit different from the bass:
E|-------------------------------------------------------------------------|
B|-------------------------------------------------------------------------|
G|--------------------------------------------5-5-5-5-7--------------------|
D|--------------------------------------------5-5-5-5-7--------------------|
A|------7-7--6-6--5-5--4-4--3-3--2---0-2-3----3-3-3-3-5--------------------|
E|--0-0--------------------------------------------------------------------|


That's all for the guitar. I'm not sure if it is 100% but it sounds good at 
least. Anything you need, mail me marian_b_91@hotmail.com
Tap to rate this tab
# A B C D E F G H I J K L M N O P Q R S T U V W X Y Z