Song name
# A B C D E F G H I J K L M N O P Q R S T U V W X Y Z

Pink - Just Like A Pill tab

(no distortion)
e-----------------------------------1---|
B----2-------------3-------------0------|
G--2---2--------2-----2-----------------|
D--------2------------------------------|  x3
A-0-----------------------3/2-----------|
E----------2--3-------------------------|


Pre-Chorus: (distortion)

e--------------------------|
B------3-----3-----3-----3-|
G------2-----2-----2-----2-|
D------0--2--0--2--0--2--0-|
A---------2-----2-----2----|
E---------0-----0-----0----|

Chorus: (distortion)

e---------------------------------------------------|
B---------------------------------------------------|
G---------------------------------------------------|
D---------------------------------------------------|
A-------------------------------55555555------------|
E-00000000--55555555--22222222------------00000000--|

e---------------------------------------------------|
B---------------------------------------------------|
G---------------------------------------------------|
D---------------------------------------------------|
A---------------------55555555----------------------|
E-55555555--22222222------------00000000------------|


(NO DISTORTION)
e---------------------------------------0-|
B-----2-----------------3-----------0-----|
G---2---2------------2-----2--------------|X3
D----------2------------------------------|
A-0----------------------------3/2--------|
E-------------2--3------------------------|


[PRE-CHORUS]

[CHORUS]X2

[PRE-CHORUS]

[CHORUS] X3
Tap to rate this tab
# A B C D E F G H I J K L M N O P Q R S T U V W X Y Z