Song name
# A B C D E F G H I J K L M N O P Q R S T U V W X Y Z

Pink - Raise Your Glass tab

The most legitimate tab of Raise Your Glass by P!nk
Tabbed by: Chris Ehrich

Intro/Verse: (Intro 1x - Verse2x)

E|--------------------------------------------------|
B|-12--12----7--7----5--5----5--5----5--x-x--5--x-x-|
G|-12--12----7--7----5--5----5--5----5--x-x--5--x-x-|
D|-12--12----7--7----5--5----5--5----5--x-x--5--x-x-|
A|-10--10----5--5----3--3----3--3----3--x-x--3--x-x-|
e|--------------------------------------------------|

E|---------7--7-------------------------------------|
B|-5--5----8--8----7--7----7--7----7--x-x--7--------|
G|-5--5----7--7----7--7----7--7----7--x-x--7--------|
D|-5--5----9--9----7--7----7--7----7--x-x--7--------|
A|-3--3----5--5----5--5----5--5----5--x-x--5--------|
e|--------------------------------------------------|

     Before the Chorus: (1x)

     E|--------------------------------------------------|
     B|-12--12----7--7----5--5----5--5----5--x-x--5--x-x-|
     G|-12--12----7--7----5--5----5--5----5--x-x--5--x-x-|
     D|-12--12----7--7----5--5----5--5----5--x-x--5--x-x-|
     A|-10--10----5--5----3--3----3--3----3--x-x--3--x-x-|
     e|--------------------------------------------------|

     E|----|
     B|-3~-|
     G|-0~-|
     D|-2~-|
     A|-3~-|
     e|----|

Chorus: (3x)
E|--------------------------------------------------|
B|-12--12----7--7----5--5----5--5----5--x-x--5--x-x-|
G|-12--12----7--7----5--5----5--5----5--x-x--5--x-x-|
D|-12--12----7--7----5--5----5--5----5--x-x--5--x-x-|
A|-10--10----5--5----3--3----3--3----3--x-x--3--x-x-|
e|--------------------------------------------------|

E|---------7--7---------------------------------------|
B|-5--5----8--8----7--7----7--7----7--x-x--7-x-x------|
G|-5--5----7--7----7--7----7--7----7--x-x--7-x-x------|
D|-5--5----9--9----7--7----7--7----7--x-x--7-x-x------|
A|-3--3----5--5----5--5----5--5----5--x-x--5-x-x------|
e|----------------------------------------------------|

Verse 2
Chorus 2

Bridge: (3x)

E|--------------------------7-------|
B|-12----7----5--------5----8----7--|
G|-12----7----5--------5----7----7--|
D|-12----7----5--------5----9----7--|
A|-10----5----3--------3----7----5--|
e|----------------------------------|

     3rd time:

     E|------------------------|
     B|-12----7----5--------3~-|
     G|-12----7----5--------0~-|
     D|-12----7----5--------2~-|
     A|-10----5----3--------3~-|
     e|------------------------|

Repeat Chorus until the end
Tap to rate this tab
 
# A B C D E F G H I J K L M N O P Q R S T U V W X Y Z