Song name
# A B C D E F G H I J K L M N O P Q R S T U V W X Y Z

Pino Daniele - Io Per Lei tab

Io Per Lei - Pino Daniele

D7 X-X-0-2-1-1

Main Riff:
e------------------------------------------------------------|
b--10-------10-----------------------------------------------|
g----12--9----12--9--------------9---------------------------|
d-------------------10--12----12---12--10-------10-----------|
a-----------------------------------------12-12----12--12----|
e------------------------------------------------------------|

Verse arpeggio:
Am          C              D
-------0----------------0---------2-----------|
-------1--------------1-----------3-----------|
-----2--------------0-----------2----2--------|
------------------------------0---------------|
-0------------2-3-----------------------------|
----------------------------------------------|

D7
--------1-------------------------------------|
----------1---1-------------------------------|
-----2------2---------------------------------|
--0-------------------------------------------|
----------------------------------------------|
----------------------------------------------|


Main Riff 2x

Verse:
Am         C
Sai che mi piace
D            D7
Quando muovi quella testa
Am             C
Per seguire la musica
D              D7
Per trovare la carica
Am         C
Sai che mi piaci
D                D7
Con quella gonna stretta
Am              C
Quando muovi il fisico
D           D7
In un ritmo isterico che fa
Main Riff 1x
Dududu dudu dududu

Chorus:
C         G
Io per lei
Am           C
Ho due occhi da bambino
D
Se sei tu il mio destino
D7
Allora portami via
C         G
Io per lei
Am           C
Ho deciso di cambiare
D
Di smettere di rovinare
D7
Sempre tutto per colpa della solitudine
La solitudine
Main Riff 2x
Dududu dudu dududu

Verse:
Am         C
Sai che mi piaci
D              D7
Quando parli cosė in fretta
Am         C
Sembra che mastichi le nuvole
D          D7
E poi non rompi mai le scatole
Am         C
Sai che mi piace
D               D7
Quella facci da furbetta
Am               C
Con quel sorriso di plastica
D             D7
Mentre fai la ginnastica
Main Riff 1x

Chorus:
C         G
Io per lei
Am           C
Ho due occhi da bambino
D
Se sei tu il mio destino
D7
Allora portami via
C         G
Io per lei
Am           C
Ho deciso di cambiare
D
Di smettere di rovinare
D7
Sempre tutto per colpa della solitudine
Di questa solitudine.

repeat Main Riff untill the song ends

tabbed by qbgrthx
Tap to rate this tab
# A B C D E F G H I J K L M N O P Q R S T U V W X Y Z