Song name
# A B C D E F G H I J K L M N O P Q R S T U V W X Y Z

Piotr Ilyich Tchaikovsky - In Church tab

                In Church                                     
                       Music for Children, Op 39 No 24

                              Piotr Tchaikovsky

                   

     E  E  E  E     Q    Q       E  E  E  E     Q.     E     H         
E||--0--0--0--0--|-------0----|--2--2--2--2--|--2------0--|--2--------|
B||--0--0--0--0--|--4----0----|--3--3--3--3--|--3------0--|--3--------|
G||--0--0--0--0--|--4----0----|--2--2--2--2--|--2------0--|--2--------|
D||--2--2--2--2--|--4----2----|--0--0--0--0--|--0------2--|--0--------|
A||--------------|--2---------|--------------|------------|-----------|
E||--------------|------------|--------------|------------|-----------|

  E  E  E  E     Q.     E     H           Q    E  E     Q.     E     Q    Q     
--3--3--3--3--|--2------0--|-----------|--0----0--2--|--3------2--|--0---------|
--3--3--3--3--|--3------0--|--4--------|--0----0--3--|--3------1--|--0----4----|
--4--4--4--4--|--2------0--|--4--------|--0----0--2--|--4------2--|--0----4----|
--5--5--5--5--|--0------2--|--4--------|--2----2--0--|------------|-------4----|
--------------|------------|--2--------|-------------|---------0--|--2----2----|
--------------|------------|-----------|-------------|--3---------|------------|

  H           Q    E  E     H           H           H           Q    E  E   
--0--------|--0----0--0--|--0--------|-----------|--0--------|--0----0--0--|
--0--------|--0----0--0--|-----------|--4--------|--0--------|--0----0--0--|
--0--------|--0----0--0--|--5--------|--4--------|--0--------|--0----0--0--|
--2--------|--2----2--2--|--4--------|--4--------|--2--------|--2----2--2--|
-----------|-------------|--0--------|--2--------|-----------|-------------|
-----------|-------------|-----------|-----------|-----------|-------------|

  H           H           Q    E  E      Q    E  E      Q    E  E   
--0--------|-----------|--0----------|--12----------|--11----------|
-----------|--4--------|--0----------|--12----------|--12----------|
--5--------|--4--------|--0----------|--12----------|--11----------|
--4--------|--4--------|--2----------|--------------|--------------|
--0--------|--2--------|-------------|--------------|--------------|
-----------|-----------|-------0--0--|---0----0--0--|---0----0--0--|

   Q    E  E      Q    E  E     Q    E  E     Q    E  E     Q    E  E   
--10----------|---8----------|--5----3-----|--2----------|--2----2-----|
---9----------|--10----------|-------0-----|--1----------|--2----4-----|
--10----------|---9----------|--5----0-----|--2----------|--3----4-----|
--------------|--------------|--4----------|-------------|-------------|
--------------|--------------|-------------|-------------|-------------|
---0----0--0--|---0----0--0--|--0----0--0--|--0----0--0--|--0----0--0--|

  Q    E  E     Q    E  E     Q    E  E      Q    E  E     Q    E  E   
--0----------|--0----------|--0----------|--------------|-------------|
--1----------|--3----------|--1----------|--------------|--0----------|
--0----------|--1----------|--2----------|---0----------|--0----------|
-------------|-------------|-------------|--10----------|--2----------|
-------------|-------------|-------------|--13----------|-------------|
--0----0--0--|--0----0--0--|--0----0--0--|---0----0--0--|--0----0--0--|

  Q    E  E     Q    E  E     Q    E  E     Q    E  E     Q    E  E   
-------------|-------------|-------------|-------------|-------------|
-------------|-------------|-------------|-------------|-------------|
--2----0-----|-------------|-------------|-------------|-------------|
--4----2-----|--4----------|--4----------|--2----------|-------------|
--3----2-----|--3----------|--6----------|-------------|-------------|
--0----0--0--|--0----0--0--|--0----0--0--|--0----0--0--|--0----0--0--|

  Q    E  E     Q    E  E     H          
-------------|-------------|-----------||
-------------|-------------|-----------||
-------------|-------------|-----------||
--2----------|--2----------|--2--------||
-------------|-------------|-----------||
--0----0--0--|--0----0--0--|--0--------||


Duration Legend
---------------
H - half
Q - quarter
E - 8th
. - note dotted
Tap to rate this tab
 
# A B C D E F G H I J K L M N O P Q R S T U V W X Y Z