Song name
# A B C D E F G H I J K L M N O P Q R S T U V W X Y Z

Pissing Razors - Forever tab

Forever
Pissing Razors
Cast Down the Plague

Please email me if you have any corrections or you know the solo because i haven't got 
to it yet and i doubt i will (thelatestplaque@hotmail.com), thank you.


[Intro:]
|-------------------|----|
|-------------------|----|
|-------------------|----|
|-------------------|----|
|-------------------|----|
|-44--44--44--44444-|-44-|

Play this on last time:
|-----------------------|
|-----------------------|
|-----------------------|
|-----------------------|
|-----------------------|
|-44--44--44---44-------|

[Riff 1]
|-------------------------|
|-------------------------|
|-------------------------|
|-------------------------|
|-------------------------|
|-/4--4--1--2--0--1--2--1-|

[Riff 2]
Played with wah wah
|----------------------------|
|----------------------------|
|----------------------------|
|----------------------------|
|--------5h6--6p5------------|
|--0000----------------------|

[Riff 3]
|-------------------------|
|-------------------------|
|-------------------------|
|-------------------------|
|-------------------------|
|--0000--0h1--1p0---------|

[Riff 4]
|-------------------------|
|-------------------------|
|-------------------------|
|-------------------------|
|-------------------------|
|-0--0--0---0h1-1p0-------|

[Riff 5]
|-------------------------|
|-------------------------|
|-------------------------|
|-------------------------|
|-------------------------|
|-0---0---0--0h1-1p0--0-0-|
Tap to rate this tab
# A B C D E F G H I J K L M N O P Q R S T U V W X Y Z