Song name
# A B C D E F G H I J K L M N O P Q R S T U V W X Y Z

Pitbull - Hey Baby tab

|--------------14--14-14--11--11-11----13--13-13---11----------------|
|-11--11-11--------------------------------------------14p13---11----|
|--------------------------------------------------------------------|
|--------------------------------------------------------------------|
|--------------------------------------------------------------------|
|--------------------------------------------------------------------|

|--------------14--14-14--11--11-11----13----------------------------|
|-11--11-11----------------------------------------------------------|
|--------------------------------------------------------------------|
|--------------------------------------------------------------------|
|--------------------------------------------------------------------|
|--------------------------------------------------------------------|

This is my first tab so rate and this is from a youtube video made by Thornaholic so enjoy
Tap to rate this tab
 
# A B C D E F G H I J K L M N O P Q R S T U V W X Y Z