Song name
# A B C D E F G H I J K L M N O P Q R S T U V W X Y Z

Pito Prez - Globo tab

-------------------------------------------------------------------------------
			  PITO PEREZ - Globo
-------------------------------------------------------------------------------
Tabbed by: Rafa88offspring
Email: rafa88offspring@hotmail.com

Tuning: Drop D (DADgbe)

Aqui está esta tablatura para esta rola de la banda tapatía Pito Pérez, 
cualquier duda, comentario o solo quieren cotorrear jeje ahi esta mi mail
y me pueden agregar al msn, chido de rato ;)

Verso (ahi ustedes hallenle mas o menos como es el rasgeo jeje)
e|----------------------------|
B|----------------------------|
G|----------------------------|
D|-2---0-4-2----2222-444-777--|
A|-2---0-4-2----2222-444-777--|
D|-2---0-4-2----2222-444-777--|

coro (tirame otra vez...) estos son los acordes ahi chequen los tiempos que
se tocan
e|-------------|
B|-------------|
G|-6--4--7--6--|
D|-6--4--7--6--|
A|-4--2--5--4--|
E|-------------|

2o Coro 

e|-------------------------|
B|-------------------------|
G|-6--4--7--6--9--4--7--6--|
D|-6--4--7--6--9--4--7--6--|
A|-4--2--5--4--7--2--5--4--|
E|-------------------------|


Interlude 1 (acuerdate de mí por favor...)
e|-------------------------------------------------|
B|-------------------------------------------------|
G|-------------------------------------------------|
D|-444-7777-2/3-2-0-0-2/3-2-0-0-2/3-2-0-0----------|
A|-444-7777-2/3-2-0-0-2/3-2-0-0-2/3-2-0-0-etc.-----|
E|-444-7777-2/3-2-0-0-2/3-2-0-0-2/3-2-0-0----------|


Interlude 2 (no lo vuelvo a hacer... caí)
e|------------|
B|------------|
G|---------9--|
D|-2--4--7-9--|
A|-2--4--7-7--|
E|-2--4--7----|



| /  slide up
| \  slide down
| h  hammer-on
| p  pull-off
| ~  vibrato
| +  harmonic
| x  Mute note
===============================================================================
Tap to rate this tab
 
# A B C D E F G H I J K L M N O P Q R S T U V W X Y Z