Song name
# A B C D E F G H I J K L M N O P Q R S T U V W X Y Z

Pixies - Bone Machine tab

e---------------------------|
b-10--10--10--10------------|
g-10--10--10--10--7b--5--4--|
d---------------------------|
a---------------------------|
E---------------------------|

e------------------------|
b-8--8--8--8-------------|
g-7--7--7--7--7b--5--4---|
d------------------------|
a------------------------|
E------------------------|

main riff ^^^^

The Chords are:

D5 A5 C5 G5

or..

e--------------|
b--------------|
g-7-----5------|
d-7--7--5--5---|
a-5--7--3--5---|
E----5-----3---|

The bass line is pretty much the root notes for the chords until the "your bone's got 
a little machine" break. I'm missing some of the parts but this is the basic idear.. Wooh

so yeah the pixies rock. Constructive critcism is appreciated. :)

tabbed by: blueandroid
explodingego@hotmail.com
Tap to rate this tab
# A B C D E F G H I J K L M N O P Q R S T U V W X Y Z